  0
SECTION
  2
HEADER
  9
$ACADVER
  1
AC1015
  9
$ACADMAINTVER
 70
    18
  9
$DWGCODEPAGE
  3
ANSI_1252
  9
$INSBASE
 10
0.0
 20
0.0
 30
0.0
  9
$EXTMIN
 10
-21659.6974365531
 20
-21680.88967117644
 30
-0.000001
  9
$EXTMAX
 10
21678.41247199073
 20
21611.3766446761
 30
0.000001
  9
$LIMMIN
 10
0.0
 20
0.0
  9
$LIMMAX
 10
12.0
 20
9.0
  9
$ORTHOMODE
 70
     0
  9
$REGENMODE
 70
     1
  9
$FILLMODE
 70
     1
  9
$QTEXTMODE
 70
     0
  9
$MIRRTEXT
 70
     0
  9
$LTSCALE
 40
1.0
  9
$ATTMODE
 70
     1
  9
$TEXTSIZE
 40
0.2
  9
$TRACEWID
 40
0.05
  9
$TEXTSTYLE
  7
Standard
  9
$CLAYER
  8
0
  9
$CELTYPE
  6
ByLayer
  9
$CECOLOR
 62
   256
  9
$CELTSCALE
 40
1.0
  9
$DISPSILH
 70
     0
  9
$DIMSCALE
 40
1.0
  9
$DIMASZ
 40
0.18
  9
$DIMEXO
 40
0.0625
  9
$DIMDLI
 40
0.38
  9
$DIMRND
 40
0.0
  9
$DIMDLE
 40
0.0
  9
$DIMEXE
 40
0.18
  9
$DIMTP
 40
0.0
  9
$DIMTM
 40
0.0
  9
$DIMTXT
 40
0.18
  9
$DIMCEN
 40
0.09
  9
$DIMTSZ
 40
0.0
  9
$DIMTOL
 70
     0
  9
$DIMLIM
 70
     0
  9
$DIMTIH
 70
     1
  9
$DIMTOH
 70
     1
  9
$DIMSE1
 70
     0
  9
$DIMSE2
 70
     0
  9
$DIMTAD
 70
     0
  9
$DIMZIN
 70
     0
  9
$DIMBLK
  1

  9
$DIMASO
 70
     1
  9
$DIMSHO
 70
     1
  9
$DIMPOST
  1

  9
$DIMAPOST
  1

  9
$DIMALT
 70
     0
  9
$DIMALTD
 70
     2
  9
$DIMALTF
 40
25.4
  9
$DIMLFAC
 40
1.0
  9
$DIMTOFL
 70
     0
  9
$DIMTVP
 40
0.0
  9
$DIMTIX
 70
     0
  9
$DIMSOXD
 70
     0
  9
$DIMSAH
 70
     0
  9
$DIMBLK1
  1

  9
$DIMBLK2
  1

  9
$DIMSTYLE
  2
Standard
  9
$DIMCLRD
 70
     0
  9
$DIMCLRE
 70
     0
  9
$DIMCLRT
 70
     0
  9
$DIMTFAC
 40
1.0
  9
$DIMGAP
 40
0.09
  9
$DIMJUST
 70
     0
  9
$DIMSD1
 70
     0
  9
$DIMSD2
 70
     0
  9
$DIMTOLJ
 70
     1
  9
$DIMTZIN
 70
     0
  9
$DIMALTZ
 70
     0
  9
$DIMALTTZ
 70
     0
  9
$DIMUPT
 70
     0
  9
$DIMDEC
 70
     4
  9
$DIMTDEC
 70
     4
  9
$DIMALTU
 70
     2
  9
$DIMALTTD
 70
     2
  9
$DIMTXSTY
  7
Standard
  9
$DIMAUNIT
 70
     0
  9
$DIMADEC
 70
     0
  9
$DIMALTRND
 40
0.0
  9
$DIMAZIN
 70
     0
  9
$DIMDSEP
 70
    46
  9
$DIMATFIT
 70
     3
  9
$DIMFRAC
 70
     0
  9
$DIMLDRBLK
  1

  9
$DIMLUNIT
 70
     2
  9
$DIMLWD
 70
    -2
  9
$DIMLWE
 70
    -2
  9
$DIMTMOVE
 70
     0
  9
$LUNITS
 70
     2
  9
$LUPREC
 70
     4
  9
$SKETCHINC
 40
0.1
  9
$FILLETRAD
 40
0.0
  9
$AUNITS
 70
     0
  9
$AUPREC
 70
     0
  9
$MENU
  1
.
  9
$ELEVATION
 40
0.0
  9
$PELEVATION
 40
0.0
  9
$THICKNESS
 40
0.0
  9
$LIMCHECK
 70
     0
  9
$CHAMFERA
 40
0.0
  9
$CHAMFERB
 40
0.0
  9
$CHAMFERC
 40
0.0
  9
$CHAMFERD
 40
0.0
  9
$SKPOLY
 70
     0
  9
$TDCREATE
 40
2455846.755649398
  9
$TDUCREATE
 40
2455846.672316065
  9
$TDUPDATE
 40
2455846.755649398
  9
$TDUUPDATE
 40
2455846.672316065
  9
$TDINDWG
 40
0.0000345139
  9
$TDUSRTIMER
 40
0.0000345139
  9
$USRTIMER
 70
     1
  9
$ANGBASE
 50
0.0
  9
$ANGDIR
 70
     0
  9
$PDMODE
 70
     0
  9
$PDSIZE
 40
0.0
  9
$PLINEWID
 40
0.0
  9
$SPLFRAME
 70
     0
  9
$SPLINETYPE
 70
     6
  9
$SPLINESEGS
 70
     8
  9
$HANDSEED
  5
18E
  9
$SURFTAB1
 70
     6
  9
$SURFTAB2
 70
     6
  9
$SURFTYPE
 70
     6
  9
$SURFU
 70
     6
  9
$SURFV
 70
     6
  9
$UCSBASE
  2

  9
$UCSNAME
  2

  9
$UCSORG
 10
0.0
 20
0.0
 30
0.0
  9
$UCSXDIR
 10
1.0
 20
0.0
 30
0.0
  9
$UCSYDIR
 10
0.0
 20
1.0
 30
0.0
  9
$UCSORTHOREF
  2

  9
$UCSORTHOVIEW
 70
     0
  9
$UCSORGTOP
 10
0.0
 20
0.0
 30
0.0
  9
$UCSORGBOTTOM
 10
0.0
 20
0.0
 30
0.0
  9
$UCSORGLEFT
 10
0.0
 20
0.0
 30
0.0
  9
$UCSORGRIGHT
 10
0.0
 20
0.0
 30
0.0
  9
$UCSORGFRONT
 10
0.0
 20
0.0
 30
0.0
  9
$UCSORGBACK
 10
0.0
 20
0.0
 30
0.0
  9
$PUCSBASE
  2

  9
$PUCSNAME
  2

  9
$PUCSORG
 10
0.0
 20
0.0
 30
0.0
  9
$PUCSXDIR
 10
1.0
 20
0.0
 30
0.0
  9
$PUCSYDIR
 10
0.0
 20
1.0
 30
0.0
  9
$PUCSORTHOREF
  2

  9
$PUCSORTHOVIEW
 70
     0
  9
$PUCSORGTOP
 10
0.0
 20
0.0
 30
0.0
  9
$PUCSORGBOTTOM
 10
0.0
 20
0.0
 30
0.0
  9
$PUCSORGLEFT
 10
0.0
 20
0.0
 30
0.0
  9
$PUCSORGRIGHT
 10
0.0
 20
0.0
 30
0.0
  9
$PUCSORGFRONT
 10
0.0
 20
0.0
 30
0.0
  9
$PUCSORGBACK
 10
0.0
 20
0.0
 30
0.0
  9
$USERI1
 70
     0
  9
$USERI2
 70
     0
  9
$USERI3
 70
     0
  9
$USERI4
 70
     0
  9
$USERI5
 70
     0
  9
$USERR1
 40
0.0
  9
$USERR2
 40
0.0
  9
$USERR3
 40
0.0
  9
$USERR4
 40
0.0
  9
$USERR5
 40
0.0
  9
$WORLDVIEW
 70
     1
  9
$SHADEDGE
 70
     3
  9
$SHADEDIF
 70
    70
  9
$TILEMODE
 70
     1
  9
$MAXACTVP
 70
    64
  9
$PINSBASE
 10
0.0
 20
0.0
 30
0.0
  9
$PLIMCHECK
 70
     0
  9
$PEXTMIN
 10
1.000000000000000E+20
 20
1.000000000000000E+20
 30
1.000000000000000E+20
  9
$PEXTMAX
 10
-1.000000000000000E+20
 20
-1.000000000000000E+20
 30
-1.000000000000000E+20
  9
$PLIMMIN
 10
0.0
 20
0.0
  9
$PLIMMAX
 10
12.0
 20
9.0
  9
$UNITMODE
 70
     0
  9
$VISRETAIN
 70
     1
  9
$PLINEGEN
 70
     0
  9
$PSLTSCALE
 70
     0
  9
$TREEDEPTH
 70
  3020
  9
$CMLSTYLE
  2
Standard
  9
$CMLJUST
 70
     0
  9
$CMLSCALE
 40
1.0
  9
$PROXYGRAPHICS
 70
     1
  9
$MEASUREMENT
 70
     1
  9
$CELWEIGHT
370
    -1
  9
$ENDCAPS
280
     0
  9
$JOINSTYLE
280
     0
  9
$LWDISPLAY
290
     0
  9
$INSUNITS
 70
     4
  9
$HYPERLINKBASE
  1

  9
$STYLESHEET
  1

  9
$XEDIT
290
     1
  9
$CEPSNTYPE
380
     0
  9
$PSTYLEMODE
290
     1
  9
$FINGERPRINTGUID
  2
{6DF35F6F-D3B6-4B23-8A1F-9AFD1611A963}
  9
$VERSIONGUID
  2
{310D94B0-E213-4BD4-8508-170E3AFCBD57}
  9
$EXTNAMES
290
     1
  9
$PSVPSCALE
 40
0.0
  9
$OLESTARTUP
290
     0
  0
ENDSEC
  0
SECTION
  2
CLASSES
  0
CLASS
  1
ACDBDICTIONARYWDFLT
  2
AcDbDictionaryWithDefault
  3
ObjectDBX Classes
 90
        0
280
     0
281
     0
  0
CLASS
  1
MATERIAL
  2
AcDbMaterial
  3
ObjectDBX Classes
 90
     1153
280
     0
281
     0
  0
CLASS
  1
VISUALSTYLE
  2
AcDbVisualStyle
  3
ObjectDBX Classes
 90
     4095
280
     0
281
     0
  0
CLASS
  1
SCALE
  2
AcDbScale
  3
ObjectDBX Classes
 90
     1153
280
     0
281
     0
  0
CLASS
  1
TABLESTYLE
  2
AcDbTableStyle
  3
ObjectDBX Classes
 90
     4095
280
     0
281
     0
  0
CLASS
  1
MLEADERSTYLE
  2
AcDbMLeaderStyle
  3
ACDB_MLEADERSTYLE_CLASS
 90
     4095
280
     0
281
     0
  0
CLASS
  1
RASTERVARIABLES
  2
AcDbRasterVariables
  3
ISM
 90
        0
280
     0
281
     0
  0
CLASS
  1
DICTIONARYVAR
  2
AcDbDictionaryVar
  3
ObjectDBX Classes
 90
        0
280
     0
281
     0
  0
CLASS
  1
CELLSTYLEMAP
  2
AcDbCellStyleMap
  3
ObjectDBX Classes
 90
     1152
280
     0
281
     0
  0
CLASS
  1
SORTENTSTABLE
  2
AcDbSortentsTable
  3
ObjectDBX Classes
 90
        0
280
     0
281
     0
  0
CLASS
  1
ACDBPLACEHOLDER
  2
AcDbPlaceHolder
  3
ObjectDBX Classes
 90
        0
280
     0
281
     0
  0
CLASS
  1
LAYOUT
  2
AcDbLayout
  3
ObjectDBX Classes
 90
        0
280
     0
281
     0
  0
ENDSEC
  0
SECTION
  2
TABLES
  0
TABLE
  2
VPORT
  5
8
330
0
100
AcDbSymbolTable
 70
     1
  0
VPORT
  5
57
330
8
100
AcDbSymbolTableRecord
100
AcDbViewportTableRecord
  2
*Active
 70
     0
 10
0.0
 20
0.0
 11
1.0
 21
1.0
 12
9.35751771881587
 22
-34.7565132501677
 13
0.0
 23
0.0
 14
1.0
 24
1.0
 15
0.0
 25
0.0
 16
0.0
 26
0.0
 36
1.0
 17
0.0
 27
0.0
 37
0.0
 40
43292.26631585254
 41
1.001058932612971
 42
50.0
 43
0.0
 44
0.0
 50
0.0
 51
0.0
 71
     0
 72
  1000
 73
     1
 74
     1
 75
     0
 76
     0
 77
     0
 78
     0
281
     0
 65
     1
110
0.0
120
0.0
130
0.0
111
1.0
121
0.0
131
0.0
112
0.0
122
1.0
132
0.0
 79
     0
146
0.0
  0
ENDTAB
  0
TABLE
  2
LTYPE
  5
5
330
0
100
AcDbSymbolTable
 70
     2
  0
LTYPE
  5
5B
330
5
100
AcDbSymbolTableRecord
100
AcDbLinetypeTableRecord
  2
ByBlock
 70
     0
  3

 72
    65
 73
     0
 40
0.0
  0
LTYPE
  5
5C
330
5
100
AcDbSymbolTableRecord
100
AcDbLinetypeTableRecord
  2
ByLayer
 70
     0
  3

 72
    65
 73
     0
 40
0.0
  0
LTYPE
  5
5D
330
5
100
AcDbSymbolTableRecord
100
AcDbLinetypeTableRecord
  2
Continuous
 70
     0
  3
Solid line
 72
    65
 73
     0
 40
0.0
  0
LTYPE
  5
130
330
5
100
AcDbSymbolTableRecord
100
AcDbLinetypeTableRecord
  2
Linea di griglia
 70
     0
  3

 72
    65
 73
     4
 40
2222.500000000001
 49
1270.0
 74
     0
 49
-317.5000000000001
 74
     0
 49
317.5000000000001
 74
     0
 49
-317.5000000000001
 74
     0
  0
ENDTAB
  0
TABLE
  2
LAYER
  5
2
330
0
100
AcDbSymbolTable
 70
     5
  0
LAYER
  5
54
330
2
100
AcDbSymbolTableRecord
100
AcDbLayerTableRecord
  2
0
 70
     0
 62
     7
  6
Continuous
370
    -3
390
F
  0
LAYER
  5
C4
330
2
100
AcDbSymbolTableRecord
100
AcDbLayerTableRecord
  2
S-COLSPRM
 70
     0
 62
     6
  6
Continuous
370
     9
390
F
  0
LAYER
  5
C5
330
2
100
AcDbSymbolTableRecord
100
AcDbLayerTableRecord
  2
A-WALL
 70
     0
 62
     2
  6
Continuous
370
     9
390
F
  0
LAYER
  5
103
330
2
100
AcDbSymbolTableRecord
100
AcDbLayerTableRecord
  2
A-----SYP
 70
     0
 62
     6
  6
Continuous
370
     9
390
F
  0
LAYER
  5
129
330
2
100
AcDbSymbolTableRecord
100
AcDbLayerTableRecord
  2
S-GRIDIDM
 70
     0
 62
     1
  6
Continuous
370
     9
390
F
  0
ENDTAB
  0
TABLE
  2
STYLE
  5
3
330
0
100
AcDbSymbolTable
 70
     2
  0
STYLE
  5
55
330
3
100
AcDbSymbolTableRecord
100
AcDbTextStyleTableRecord
  2
Standard
 70
     0
 40
0.0
 41
1.0
 50
0.0
 71
     0
 42
0.2
  3
txt
  4

  0
STYLE
  5
5A
330
3
100
AcDbSymbolTableRecord
100
AcDbTextStyleTableRecord
  2
Annotative
 70
     0
 40
0.0
 41
1.0
 50
0.0
 71
     0
 42
0.2
  3
txt
  4

1001
AcadAnnotative
1000
AnnotativeData
1002
{
1070
     1
1070
     1
1002
}
  0
ENDTAB
  0
TABLE
  2
VIEW
  5
6
330
0
100
AcDbSymbolTable
 70
     0
  0
ENDTAB
  0
TABLE
  2
UCS
  5
7
330
0
100
AcDbSymbolTable
 70
     1
  0
UCS
  5
146
330
7
100
AcDbSymbolTableRecord
100
AcDbUCSTableRecord
  2
REVIT60-Interno
 70
     0
 10
0.0
 20
0.0
 30
0.0
 11
1.0
 21
0.0
 31
0.0
 12
0.0
 22
1.0
 32
0.0
 79
     0
146
0.0
  0
ENDTAB
  0
TABLE
  2
APPID
  5
9
330
0
100
AcDbSymbolTable
 70
     4
  0
APPID
  5
56
330
9
100
AcDbSymbolTableRecord
100
AcDbRegAppTableRecord
  2
ACAD
 70
     0
  0
APPID
  5
5E
330
9
100
AcDbSymbolTableRecord
100
AcDbRegAppTableRecord
  2
AcadAnnotative
 70
     0
  0
APPID
  5
74
330
9
100
AcDbSymbolTableRecord
100
AcDbRegAppTableRecord
  2
REVIT
 70
     0
  0
APPID
  5
187
330
9
100
AcDbSymbolTableRecord
100
AcDbRegAppTableRecord
  2
ACAD_MLEADERVER
 70
     0
  0
ENDTAB
  0
TABLE
  2
DIMSTYLE
  5
A
330
0
100
AcDbSymbolTable
 70
     2
100
AcDbDimStyleTable
 71
     0
  0
DIMSTYLE
105
58
330
A
100
AcDbSymbolTableRecord
100
AcDbDimStyleTableRecord
  2
Standard
 70
     0
340
55
  0
DIMSTYLE
105
59
330
A
100
AcDbSymbolTableRecord
100
AcDbDimStyleTableRecord
  2
Annotative
 70
     0
340
55
1001
AcadAnnotative
1000
AnnotativeData
1002
{
1070
     1
1070
     1
1002
}
  0
ENDTAB
  0
TABLE
  2
BLOCK_RECORD
  5
1
330
0
100
AcDbSymbolTable
 70
     4
  0
BLOCK_RECORD
  5
6C
102
{ACAD_XDICTIONARY
360
14A
102
}
330
1
100
AcDbSymbolTableRecord
100
AcDbBlockTableRecord
  2
*Model_Space
340
6F
  0
BLOCK_RECORD
  5
68
330
1
100
AcDbSymbolTableRecord
100
AcDbBlockTableRecord
  2
*Paper_Space
340
6B
  0
BLOCK_RECORD
  5
70
330
1
100
AcDbSymbolTableRecord
100
AcDbBlockTableRecord
  2
*Paper_Space0
340
73
  0
BLOCK_RECORD
  5
104
330
1
100
AcDbSymbolTableRecord
100
AcDbBlockTableRecord
  2
Elevation - Fre_Piano Tipo0
340
0
102
{BLKREFS
331
108
331
11A
331
11F
331
124
102
}
  0
BLOCK_RECORD
  5
10A
330
1
100
AcDbSymbolTableRecord
100
AcDbBlockTableRecord
  2
Elevation - Fre_Piano Tipo2
340
0
102
{BLKREFS
331
117
331
11C
331
121
331
126
102
}
  0
BLOCK_RECORD
  5
12A
330
1
100
AcDbSymbolTableRecord
100
AcDbBlockTableRecord
  2
Grid - Estremit_Piano Tipo0
340
0
102
{BLKREFS
331
12E
331
132
331
135
331
138
331
13B
331
13E
331
141
102
}
  0
ENDTAB
  0
ENDSEC
  0
SECTION
  2
BLOCKS
  0
BLOCK
  5
6D
330
6C
100
AcDbEntity
  8
0
100
AcDbBlockBegin
  2
*Model_Space
 70
     0
 10
0.0
 20
0.0
 30
0.0
  3
*Model_Space
  1

  0
ENDBLK
  5
6E
330
6C
100
AcDbEntity
  8
0
100
AcDbBlockEnd
  0
BLOCK
  5
69
330
68
100
AcDbEntity
 67
     1
  8
0
100
AcDbBlockBegin
  2
*Paper_Space
 70
     0
 10
0.0
 20
0.0
 30
0.0
  3
*Paper_Space
  1

  0
ENDBLK
  5
6A
330
68
100
AcDbEntity
 67
     1
  8
0
100
AcDbBlockEnd
  0
BLOCK
  5
71
330
70
100
AcDbEntity
 67
     1
  8
0
100
AcDbBlockBegin
  2
*Paper_Space0
 70
     0
 10
0.0
 20
0.0
 30
0.0
  3
*Paper_Space0
  1

  0
ENDBLK
  5
72
330
70
100
AcDbEntity
 67
     1
  8
0
100
AcDbBlockEnd
  0
BLOCK
  5
106
330
104
100
AcDbEntity
  8
0
100
AcDbBlockBegin
  2
Elevation - Fre_Piano Tipo0
 70
     0
 10
0.0
 20
0.0
 30
0.0
  3
Elevation - Fre_Piano Tipo0
  1

  0
CIRCLE
  5
105
330
104
100
AcDbEntity
  8
A-----SYP
100
AcDbCircle
 10
0.0
 20
0.0
 30
0.0
 40
6.000000000000004
  0
ENDBLK
  5
107
330
104
100
AcDbEntity
  8
0
100
AcDbBlockEnd
  0
BLOCK
  5
115
330
10A
100
AcDbEntity
  8
0
100
AcDbBlockBegin
  2
Elevation - Fre_Piano Tipo2
 70
     0
 10
0.0
 20
0.0
 30
0.0
  3
Elevation - Fre_Piano Tipo2
  1

  0
ARC
  5
10B
330
10A
100
AcDbEntity
  8
A-----SYP
100
AcDbCircle
 10
-0.0000000000000243
 20
-0.0000000000000422
 30
0.0
 40
5.999554012253728
100
AcDbArc
 50
44.99999999999989
 51
134.9999999999999
  0
LINE
  5
10C
330
10A
100
AcDbEntity
  8
A-----SYP
100
AcDbLine
 10
-0.0000000000000119
 20
8.484650652319094
 30
0.0
 11
-4.242325326159586
 21
4.242325326159543
 31
0.0
  0
LINE
  5
10D
330
10A
100
AcDbEntity
  8
A-----SYP
100
AcDbLine
 10
4.242325326159551
 20
4.242325326159522
 30
0.0
 11
-0.0000000000000116
 21
8.484650652319094
 31
0.0
  0
HATCH
  5
111
330
10A
100
AcDbEntity
  8
A-----SYP
100
AcDbHatch
 10
0.0
 20
0.0
 30
0.0
210
0.0
220
0.0
230
1.0
  2
SOLID
 70
     1
 71
     0
 91
        1
 92
        0
 93
        3
 72
     1
 10
-4.242325326159586
 20
4.242325326159543
 11
-0.0000000000000115
 21
8.484650652319096
 72
     1
 10
-0.0000000000000111
 20
8.484650652319094
 11
4.242325326159551
 21
4.242325326159522
 72
     2
 10
-0.0000000000000243
 20
-0.0000000000000407
 40
5.999554012253727
 50
44.99999999999987
 51
134.9999999999999
 73
     1
 97
        0
 75
     0
 76
     1
 98
        1
 10
0.0
 20
0.0
  0
ARC
  5
112
330
10A
100
AcDbEntity
  8
A-----SYP
100
AcDbCircle
 10
-0.0000000000000243
 20
-0.0000000000000407
 30
0.0
 40
5.999554012253727
100
AcDbArc
 50
44.99999999999987
 51
134.9999999999999
  0
LINE
  5
113
330
10A
100
AcDbEntity
  8
A-----SYP
100
AcDbLine
 10
4.242325326159551
 20
4.242325326159522
 30
0.0
 11
-0.0000000000000111
 21
8.484650652319094
 31
0.0
  0
LINE
  5
114
330
10A
100
AcDbEntity
  8
A-----SYP
100
AcDbLine
 10
-0.0000000000000116
 20
8.484650652319096
 30
0.0
 11
-4.242325326159586
 21
4.242325326159543
 31
0.0
  0
ENDBLK
  5
116
330
10A
100
AcDbEntity
  8
0
100
AcDbBlockEnd
  0
BLOCK
  5
12C
330
12A
100
AcDbEntity
  8
0
100
AcDbBlockBegin
  2
Grid - Estremit_Piano Tipo0
 70
     0
 10
0.0
 20
0.0
 30
0.0
  3
Grid - Estremit_Piano Tipo0
  1

  0
CIRCLE
  5
12B
330
12A
100
AcDbEntity
  8
S-GRIDIDM
100
AcDbCircle
 10
0.0
 20
0.0
 30
0.0
 40
6.500000000000005
  0
ENDBLK
  5
12D
330
12A
100
AcDbEntity
  8
0
100
AcDbBlockEnd
  0
ENDSEC
  0
SECTION
  2
ENTITIES
  0
LINE
  5
C6
330
6C
100
AcDbEntity
  8
S-COLSPRM
370
    30
100
AcDbLine
 10
-8983.63804288645
 20
7477.510814625863
 30
0.0
 11
-9283.638042886449
 21
7477.510814625863
 31
0.0
1001
REVIT
1002
{
1070
     1
1000
79323
1002
}
1002
{
1070
     5
1000
29121
1002
}
1002
{
1070
     2
1000
-2001330
1002
}
  0
LINE
  5
C7
330
6C
100
AcDbEntity
  8
S-COLSPRM
370
    30
100
AcDbLine
 10
-9283.638042886449
 20
7477.510814625863
 30
0.0
 11
-9283.638042886449
 21
7177.510814625865
 31
0.0
1001
REVIT
1002
{
1070
     1
1000
79323
1002
}
1002
{
1070
     5
1000
29121
1002
}
1002
{
1070
     2
1000
-2001330
1002
}
  0
LINE
  5
C8
330
6C
100
AcDbEntity
  8
S-COLSPRM
370
    30
100
AcDbLine
 10
-9283.638042886449
 20
7177.510814625865
 30
0.0
 11
-8983.63804288645
 21
7177.510814625865
 31
0.0
1001
REVIT
1002
{
1070
     1
1000
79323
1002
}
1002
{
1070
     5
1000
29121
1002
}
1002
{
1070
     2
1000
-2001330
1002
}
  0
LINE
  5
C9
330
6C
100
AcDbEntity
  8
S-COLSPRM
370
    30
100
AcDbLine
 10
-8983.63804288645
 20
7177.510814625865
 30
0.0
 11
-8983.63804288645
 21
7477.510814625863
 31
0.0
1001
REVIT
1002
{
1070
     1
1000
79323
1002
}
1002
{
1070
     5
1000
29121
1002
}
1002
{
1070
     2
1000
-2001330
1002
}
  0
LINE
  5
CA
330
6C
100
AcDbEntity
  8
S-COLSPRM
370
    30
100
AcDbLine
 10
-8983.638042886463
 20
-122.4891853741361
 30
0.0
 11
-9283.638042886463
 21
-122.4891853741351
 31
0.0
1001
REVIT
1002
{
1070
     1
1000
79325
1002
}
1002
{
1070
     5
1000
29121
1002
}
1002
{
1070
     2
1000
-2001330
1002
}
  0
LINE
  5
CB
330
6C
100
AcDbEntity
  8
S-COLSPRM
370
    30
100
AcDbLine
 10
-9283.638042886463
 20
-122.4891853741351
 30
0.0
 11
-9283.638042886463
 21
-422.489185374135
 31
0.0
1001
REVIT
1002
{
1070
     1
1000
79325
1002
}
1002
{
1070
     5
1000
29121
1002
}
1002
{
1070
     2
1000
-2001330
1002
}
  0
LINE
  5
CC
330
6C
100
AcDbEntity
  8
S-COLSPRM
370
    30
100
AcDbLine
 10
-9283.638042886463
 20
-422.489185374135
 30
0.0
 11
-8983.638042886463
 21
-422.4891853741359
 31
0.0
1001
REVIT
1002
{
1070
     1
1000
79325
1002
}
1002
{
1070
     5
1000
29121
1002
}
1002
{
1070
     2
1000
-2001330
1002
}
  0
LINE
  5
CD
330
6C
100
AcDbEntity
  8
S-COLSPRM
370
    30
100
AcDbLine
 10
-8983.638042886463
 20
-422.4891853741359
 30
0.0
 11
-8983.638042886463
 21
-122.489185374136
 31
0.0
1001
REVIT
1002
{
1070
     1
1000
79325
1002
}
1002
{
1070
     5
1000
29121
1002
}
1002
{
1070
     2
1000
-2001330
1002
}
  0
LINE
  5
CE
330
6C
100
AcDbEntity
  8
S-COLSPRM
370
    30
100
AcDbLine
 10
-8983.638042886473
 20
-6922.489185374137
 30
0.0
 11
-9283.638042886474
 21
-6922.489185374137
 31
0.0
1001
REVIT
1002
{
1070
     1
1000
79327
1002
}
1002
{
1070
     5
1000
29121
1002
}
1002
{
1070
     2
1000
-2001330
1002
}
  0
LINE
  5
CF
330
6C
100
AcDbEntity
  8
S-COLSPRM
370
    30
100
AcDbLine
 10
-9283.638042886474
 20
-6922.489185374137
 30
0.0
 11
-9283.638042886474
 21
-7222.489185374135
 31
0.0
1001
REVIT
1002
{
1070
     1
1000
79327
1002
}
1002
{
1070
     5
1000
29121
1002
}
1002
{
1070
     2
1000
-2001330
1002
}
  0
LINE
  5
D0
330
6C
100
AcDbEntity
  8
S-COLSPRM
370
    30
100
AcDbLine
 10
-9283.638042886474
 20
-7222.489185374135
 30
0.0
 11
-8983.638042886473
 21
-7222.489185374135
 31
0.0
1001
REVIT
1002
{
1070
     1
1000
79327
1002
}
1002
{
1070
     5
1000
29121
1002
}
1002
{
1070
     2
1000
-2001330
1002
}
  0
LINE
  5
D1
330
6C
100
AcDbEntity
  8
S-COLSPRM
370
    30
100
AcDbLine
 10
-8983.638042886473
 20
-7222.489185374135
 30
0.0
 11
-8983.638042886473
 21
-6922.489185374137
 31
0.0
1001
REVIT
1002
{
1070
     1
1000
79327
1002
}
1002
{
1070
     5
1000
29121
1002
}
1002
{
1070
     2
1000
-2001330
1002
}
  0
LINE
  5
D2
330
6C
100
AcDbEntity
  8
S-COLSPRM
370
    30
100
AcDbLine
 10
-2388.867071630779
 20
7477.510814625843
 30
0.0
 11
-2688.867071630779
 21
7477.510814625843
 31
0.0
1001
REVIT
1002
{
1070
     1
1000
79329
1002
}
1002
{
1070
     5
1000
29121
1002
}
1002
{
1070
     2
1000
-2001330
1002
}
  0
LINE
  5
D3
330
6C
100
AcDbEntity
  8
S-COLSPRM
370
    30
100
AcDbLine
 10
-2688.867071630779
 20
7477.510814625843
 30
0.0
 11
-2688.86707163078
 21
7177.510814625843
 31
0.0
1001
REVIT
1002
{
1070
     1
1000
79329
1002
}
1002
{
1070
     5
1000
29121
1002
}
1002
{
1070
     2
1000
-2001330
1002
}
  0
LINE
  5
D4
330
6C
100
AcDbEntity
  8
S-COLSPRM
370
    30
100
AcDbLine
 10
-2688.86707163078
 20
7177.510814625843
 30
0.0
 11
-2388.86707163078
 21
7177.510814625843
 31
0.0
1001
REVIT
1002
{
1070
     1
1000
79329
1002
}
1002
{
1070
     5
1000
29121
1002
}
1002
{
1070
     2
1000
-2001330
1002
}
  0
LINE
  5
D5
330
6C
100
AcDbEntity
  8
S-COLSPRM
370
    30
100
AcDbLine
 10
-2388.86707163078
 20
7177.510814625843
 30
0.0
 11
-2388.867071630779
 21
7477.510814625843
 31
0.0
1001
REVIT
1002
{
1070
     1
1000
79329
1002
}
1002
{
1070
     5
1000
29121
1002
}
1002
{
1070
     2
1000
-2001330
1002
}
  0
LINE
  5
D6
330
6C
100
AcDbEntity
  8
S-COLSPRM
370
    30
100
AcDbLine
 10
-2388.867071630792
 20
-122.4891853741577
 30
0.0
 11
-2688.867071630792
 21
-122.4891853741568
 31
0.0
1001
REVIT
1002
{
1070
     1
1000
79331
1002
}
1002
{
1070
     5
1000
29121
1002
}
1002
{
1070
     2
1000
-2001330
1002
}
  0
LINE
  5
D7
330
6C
100
AcDbEntity
  8
S-COLSPRM
370
    30
100
AcDbLine
 10
-2688.867071630792
 20
-122.4891853741568
 30
0.0
 11
-2688.867071630792
 21
-422.4891853741566
 31
0.0
1001
REVIT
1002
{
1070
     1
1000
79331
1002
}
1002
{
1070
     5
1000
29121
1002
}
1002
{
1070
     2
1000
-2001330
1002
}
  0
LINE
  5
D8
330
6C
100
AcDbEntity
  8
S-COLSPRM
370
    30
100
AcDbLine
 10
-2688.867071630792
 20
-422.4891853741566
 30
0.0
 11
-2388.867071630793
 21
-422.4891853741576
 31
0.0
1001
REVIT
1002
{
1070
     1
1000
79331
1002
}
1002
{
1070
     5
1000
29121
1002
}
1002
{
1070
     2
1000
-2001330
1002
}
  0
LINE
  5
D9
330
6C
100
AcDbEntity
  8
S-COLSPRM
370
    30
100
AcDbLine
 10
-2388.867071630793
 20
-422.4891853741576
 30
0.0
 11
-2388.867071630792
 21
-122.4891853741577
 31
0.0
1001
REVIT
1002
{
1070
     1
1000
79331
1002
}
1002
{
1070
     5
1000
29121
1002
}
1002
{
1070
     2
1000
-2001330
1002
}
  0
LINE
  5
DA
330
6C
100
AcDbEntity
  8
S-COLSPRM
370
    30
100
AcDbLine
 10
-2388.867071630802
 20
-6922.48918537416
 30
0.0
 11
-2688.867071630803
 21
-6922.48918537416
 31
0.0
1001
REVIT
1002
{
1070
     1
1000
79333
1002
}
1002
{
1070
     5
1000
29121
1002
}
1002
{
1070
     2
1000
-2001330
1002
}
  0
LINE
  5
DB
330
6C
100
AcDbEntity
  8
S-COLSPRM
370
    30
100
AcDbLine
 10
-2688.867071630803
 20
-6922.48918537416
 30
0.0
 11
-2688.867071630804
 21
-7222.489185374159
 31
0.0
1001
REVIT
1002
{
1070
     1
1000
79333
1002
}
1002
{
1070
     5
1000
29121
1002
}
1002
{
1070
     2
1000
-2001330
1002
}
  0
LINE
  5
DC
330
6C
100
AcDbEntity
  8
S-COLSPRM
370
    30
100
AcDbLine
 10
-2688.867071630804
 20
-7222.489185374159
 30
0.0
 11
-2388.867071630803
 21
-7222.489185374159
 31
0.0
1001
REVIT
1002
{
1070
     1
1000
79333
1002
}
1002
{
1070
     5
1000
29121
1002
}
1002
{
1070
     2
1000
-2001330
1002
}
  0
LINE
  5
DD
330
6C
100
AcDbEntity
  8
S-COLSPRM
370
    30
100
AcDbLine
 10
-2388.867071630803
 20
-7222.489185374159
 30
0.0
 11
-2388.867071630802
 21
-6922.48918537416
 31
0.0
1001
REVIT
1002
{
1070
     1
1000
79333
1002
}
1002
{
1070
     5
1000
29121
1002
}
1002
{
1070
     2
1000
-2001330
1002
}
  0
LINE
  5
DE
330
6C
100
AcDbEntity
  8
S-COLSPRM
370
    30
100
AcDbLine
 10
5307.661704131991
 20
7477.510814625818
 30
0.0
 11
5007.661704131991
 21
7477.510814625818
 31
0.0
1001
REVIT
1002
{
1070
     1
1000
79335
1002
}
1002
{
1070
     5
1000
29121
1002
}
1002
{
1070
     2
1000
-2001330
1002
}
  0
LINE
  5
DF
330
6C
100
AcDbEntity
  8
S-COLSPRM
370
    30
100
AcDbLine
 10
5007.661704131991
 20
7477.510814625818
 30
0.0
 11
5007.661704131991
 21
7177.510814625819
 31
0.0
1001
REVIT
1002
{
1070
     1
1000
79335
1002
}
1002
{
1070
     5
1000
29121
1002
}
1002
{
1070
     2
1000
-2001330
1002
}
  0
LINE
  5
E0
330
6C
100
AcDbEntity
  8
S-COLSPRM
370
    30
100
AcDbLine
 10
5007.661704131991
 20
7177.510814625819
 30
0.0
 11
5307.661704131991
 21
7177.510814625819
 31
0.0
1001
REVIT
1002
{
1070
     1
1000
79335
1002
}
1002
{
1070
     5
1000
29121
1002
}
1002
{
1070
     2
1000
-2001330
1002
}
  0
LINE
  5
E1
330
6C
100
AcDbEntity
  8
S-COLSPRM
370
    30
100
AcDbLine
 10
5307.661704131991
 20
7177.510814625819
 30
0.0
 11
5307.661704131991
 21
7477.510814625818
 31
0.0
1001
REVIT
1002
{
1070
     1
1000
79335
1002
}
1002
{
1070
     5
1000
29121
1002
}
1002
{
1070
     2
1000
-2001330
1002
}
  0
LINE
  5
E2
330
6C
100
AcDbEntity
  8
S-COLSPRM
370
    30
100
AcDbLine
 10
5573.059552269262
 20
-122.4891853741794
 30
0.0
 11
5273.059552269263
 21
-122.4891853741784
 31
0.0
1001
REVIT
1002
{
1070
     1
1000
79337
1002
}
1002
{
1070
     5
1000
29121
1002
}
1002
{
1070
     2
1000
-2001330
1002
}
  0
LINE
  5
E3
330
6C
100
AcDbEntity
  8
S-COLSPRM
370
    30
100
AcDbLine
 10
5273.059552269263
 20
-122.4891853741784
 30
0.0
 11
5273.059552269263
 21
-422.4891853741783
 31
0.0
1001
REVIT
1002
{
1070
     1
1000
79337
1002
}
1002
{
1070
     5
1000
29121
1002
}
1002
{
1070
     2
1000
-2001330
1002
}
  0
LINE
  5
E4
330
6C
100
AcDbEntity
  8
S-COLSPRM
370
    30
100
AcDbLine
 10
5273.059552269263
 20
-422.4891853741783
 30
0.0
 11
5573.059552269262
 21
-422.4891853741793
 31
0.0
1001
REVIT
1002
{
1070
     1
1000
79337
1002
}
1002
{
1070
     5
1000
29121
1002
}
1002
{
1070
     2
1000
-2001330
1002
}
  0
LINE
  5
E5
330
6C
100
AcDbEntity
  8
S-COLSPRM
370
    30
100
AcDbLine
 10
5573.059552269262
 20
-422.4891853741793
 30
0.0
 11
5573.059552269262
 21
-122.4891853741793
 31
0.0
1001
REVIT
1002
{
1070
     1
1000
79337
1002
}
1002
{
1070
     5
1000
29121
1002
}
1002
{
1070
     2
1000
-2001330
1002
}
  0
LINE
  5
E6
330
6C
100
AcDbEntity
  8
S-COLSPRM
370
    30
100
AcDbLine
 10
5810.520784813137
 20
-6922.489185374181
 30
0.0
 11
5510.520784813137
 21
-6922.489185374181
 31
0.0
1001
REVIT
1002
{
1070
     1
1000
79339
1002
}
1002
{
1070
     5
1000
29121
1002
}
1002
{
1070
     2
1000
-2001330
1002
}
  0
LINE
  5
E7
330
6C
100
AcDbEntity
  8
S-COLSPRM
370
    30
100
AcDbLine
 10
5510.520784813137
 20
-6922.489185374181
 30
0.0
 11
5510.520784813137
 21
-7222.489185374179
 31
0.0
1001
REVIT
1002
{
1070
     1
1000
79339
1002
}
1002
{
1070
     5
1000
29121
1002
}
1002
{
1070
     2
1000
-2001330
1002
}
  0
LINE
  5
E8
330
6C
100
AcDbEntity
  8
S-COLSPRM
370
    30
100
AcDbLine
 10
5510.520784813137
 20
-7222.489185374179
 30
0.0
 11
5810.520784813137
 21
-7222.489185374179
 31
0.0
1001
REVIT
1002
{
1070
     1
1000
79339
1002
}
1002
{
1070
     5
1000
29121
1002
}
1002
{
1070
     2
1000
-2001330
1002
}
  0
LINE
  5
E9
330
6C
100
AcDbEntity
  8
S-COLSPRM
370
    30
100
AcDbLine
 10
5810.520784813137
 20
-7222.489185374179
 30
0.0
 11
5810.520784813137
 21
-6922.489185374181
 31
0.0
1001
REVIT
1002
{
1070
     1
1000
79339
1002
}
1002
{
1070
     5
1000
29121
1002
}
1002
{
1070
     2
1000
-2001330
1002
}
  0
LINE
  5
EA
330
6C
100
AcDbEntity
  8
S-COLSPRM
370
    30
100
AcDbLine
 10
12644.37428219935
 20
7477.510814625794
 30
0.0
 11
12344.37428219935
 21
7477.510814625794
 31
0.0
1001
REVIT
1002
{
1070
     1
1000
79341
1002
}
1002
{
1070
     5
1000
29121
1002
}
1002
{
1070
     2
1000
-2001330
1002
}
  0
LINE
  5
EB
330
6C
100
AcDbEntity
  8
S-COLSPRM
370
    30
100
AcDbLine
 10
12344.37428219935
 20
7477.510814625794
 30
0.0
 11
12344.37428219935
 21
7177.510814625795
 31
0.0
1001
REVIT
1002
{
1070
     1
1000
79341
1002
}
1002
{
1070
     5
1000
29121
1002
}
1002
{
1070
     2
1000
-2001330
1002
}
  0
LINE
  5
EC
330
6C
100
AcDbEntity
  8
S-COLSPRM
370
    30
100
AcDbLine
 10
12344.37428219935
 20
7177.510814625795
 30
0.0
 11
12644.37428219935
 21
7177.510814625795
 31
0.0
1001
REVIT
1002
{
1070
     1
1000
79341
1002
}
1002
{
1070
     5
1000
29121
1002
}
1002
{
1070
     2
1000
-2001330
1002
}
  0
LINE
  5
ED
330
6C
100
AcDbEntity
  8
S-COLSPRM
370
    30
100
AcDbLine
 10
12644.37428219935
 20
7177.510814625795
 30
0.0
 11
12644.37428219935
 21
7477.510814625794
 31
0.0
1001
REVIT
1002
{
1070
     1
1000
79341
1002
}
1002
{
1070
     5
1000
29121
1002
}
1002
{
1070
     2
1000
-2001330
1002
}
  0
LINE
  5
EE
330
6C
100
AcDbEntity
  8
S-COLSPRM
370
    30
100
AcDbLine
 10
12644.37428219934
 20
-122.4891853742075
 30
0.0
 11
12344.37428219934
 21
-122.4891853742066
 31
0.0
1001
REVIT
1002
{
1070
     1
1000
79343
1002
}
1002
{
1070
     5
1000
29121
1002
}
1002
{
1070
     2
1000
-2001330
1002
}
  0
LINE
  5
EF
330
6C
100
AcDbEntity
  8
S-COLSPRM
370
    30
100
AcDbLine
 10
12344.37428219934
 20
-122.4891853742066
 30
0.0
 11
12344.37428219934
 21
-422.4891853742064
 31
0.0
1001
REVIT
1002
{
1070
     1
1000
79343
1002
}
1002
{
1070
     5
1000
29121
1002
}
1002
{
1070
     2
1000
-2001330
1002
}
  0
LINE
  5
F0
330
6C
100
AcDbEntity
  8
S-COLSPRM
370
    30
100
AcDbLine
 10
12344.37428219934
 20
-422.4891853742064
 30
0.0
 11
12644.37428219934
 21
-422.4891853742073
 31
0.0
1001
REVIT
1002
{
1070
     1
1000
79343
1002
}
1002
{
1070
     5
1000
29121
1002
}
1002
{
1070
     2
1000
-2001330
1002
}
  0
LINE
  5
F1
330
6C
100
AcDbEntity
  8
S-COLSPRM
370
    30
100
AcDbLine
 10
12644.37428219934
 20
-422.4891853742073
 30
0.0
 11
12644.37428219934
 21
-122.4891853742075
 31
0.0
1001
REVIT
1002
{
1070
     1
1000
79343
1002
}
1002
{
1070
     5
1000
29121
1002
}
1002
{
1070
     2
1000
-2001330
1002
}
  0
LINE
  5
F2
330
6C
100
AcDbEntity
  8
S-COLSPRM
370
    30
100
AcDbLine
 10
12644.37428219933
 20
-6922.489185374208
 30
0.0
 11
12344.37428219933
 21
-6922.489185374208
 31
0.0
1001
REVIT
1002
{
1070
     1
1000
79345
1002
}
1002
{
1070
     5
1000
29121
1002
}
1002
{
1070
     2
1000
-2001330
1002
}
  0
LINE
  5
F3
330
6C
100
AcDbEntity
  8
S-COLSPRM
370
    30
100
AcDbLine
 10
12344.37428219933
 20
-6922.489185374208
 30
0.0
 11
12344.37428219933
 21
-7222.489185374207
 31
0.0
1001
REVIT
1002
{
1070
     1
1000
79345
1002
}
1002
{
1070
     5
1000
29121
1002
}
1002
{
1070
     2
1000
-2001330
1002
}
  0
LINE
  5
F4
330
6C
100
AcDbEntity
  8
S-COLSPRM
370
    30
100
AcDbLine
 10
12344.37428219933
 20
-7222.489185374207
 30
0.0
 11
12644.37428219933
 21
-7222.489185374207
 31
0.0
1001
REVIT
1002
{
1070
     1
1000
79345
1002
}
1002
{
1070
     5
1000
29121
1002
}
1002
{
1070
     2
1000
-2001330
1002
}
  0
LINE
  5
F5
330
6C
100
AcDbEntity
  8
S-COLSPRM
370
    30
100
AcDbLine
 10
12644.37428219933
 20
-7222.489185374207
 30
0.0
 11
12644.37428219933
 21
-6922.489185374208
 31
0.0
1001
REVIT
1002
{
1070
     1
1000
79345
1002
}
1002
{
1070
     5
1000
29121
1002
}
1002
{
1070
     2
1000
-2001330
1002
}
  0
LINE
  5
F6
330
6C
100
AcDbEntity
  8
A-WALL
370
    30
100
AcDbLine
 10
-10560.70464656349
 20
8608.800761056196
 30
0.0
 11
12994.44203721545
 21
8608.800761056121
 31
0.0
1001
REVIT
1002
{
1070
     1
1000
79505
1002
}
1002
{
1070
     5
1000
952
1002
}
1002
{
1070
     2
1000
-2000011
1002
}
  0
LINE
  5
F8
330
6C
100
AcDbEntity
  8
A-WALL
370
    30
100
AcDbLine
 10
13284.14866965757
 20
8908.800761056118
 30
0.0
 11
-10560.70464656349
 21
8908.800761056197
 31
0.0
1001
REVIT
1002
{
1070
     1
1000
79505
1002
}
1002
{
1070
     5
1000
952
1002
}
1002
{
1070
     2
1000
-2000011
1002
}
  0
LINE
  5
F9
330
6C
100
AcDbEntity
  8
A-WALL
370
    30
100
AcDbLine
 10
-10560.70464656349
 20
8908.800761056197
 30
0.0
 11
-10560.70464656349
 21
8608.800761056196
 31
0.0
1001
REVIT
1002
{
1070
     1
1000
79505
1002
}
1002
{
1070
     5
1000
952
1002
}
1002
{
1070
     2
1000
-2000011
1002
}
  0
LINE
  5
FA
330
6C
100
AcDbEntity
  8
A-WALL
370
    30
100
AcDbLine
 10
12994.44203721545
 20
8608.800761056118
 30
0.0
 11
13594.89299717195
 21
-8585.865012230573
 31
0.0
1001
REVIT
1002
{
1070
     1
1000
79546
1002
}
1002
{
1070
     5
1000
952
1002
}
1002
{
1070
     2
1000
-2000011
1002
}
  0
LINE
  5
FC
330
6C
100
AcDbEntity
  8
A-WALL
370
    30
100
AcDbLine
 10
13905.18009428843
 20
-8875.212411325549
 30
0.0
 11
13284.14866965757
 21
8908.800761056118
 31
0.0
1001
REVIT
1002
{
1070
     1
1000
79546
1002
}
1002
{
1070
     5
1000
952
1002
}
1002
{
1070
     2
1000
-2000011
1002
}
  0
LINE
  5
FD
330
6C
100
AcDbEntity
  8
A-WALL
370
    30
100
AcDbLine
 10
13594.89299717195
 20
-8585.86501223057
 30
0.0
 11
-11984.18587406439
 21
-9479.106129304131
 31
0.0
1001
REVIT
1002
{
1070
     1
1000
79590
1002
}
1002
{
1070
     5
1000
952
1002
}
1002
{
1070
     2
1000
-2000011
1002
}
  0
LINE
  5
FF
330
6C
100
AcDbEntity
  8
A-WALL
370
    30
100
AcDbLine
 10
-12284.18587406439
 20
-9789.7652234413
 30
0.0
 11
13905.18009428843
 21
-8875.212411325549
 31
0.0
1001
REVIT
1002
{
1070
     1
1000
79590
1002
}
1002
{
1070
     5
1000
952
1002
}
1002
{
1070
     2
1000
-2000011
1002
}
  0
LINE
  5
100
330
6C
100
AcDbEntity
  8
A-WALL
370
    30
100
AcDbLine
 10
-11984.18587406439
 20
-9479.106129304129
 30
0.0
 11
-11984.18587406438
 21
-1334.435676372715
 31
0.0
1001
REVIT
1002
{
1070
     1
1000
79658
1002
}
1002
{
1070
     5
1000
952
1002
}
1002
{
1070
     2
1000
-2000011
1002
}
  0
LINE
  5
101
330
6C
100
AcDbEntity
  8
A-WALL
370
    30
100
AcDbLine
 10
-11984.18587406438
 20
-1334.435676372715
 30
0.0
 11
-12284.18587406438
 21
-1334.435676372714
 31
0.0
1001
REVIT
1002
{
1070
     1
1000
79658
1002
}
1002
{
1070
     5
1000
952
1002
}
1002
{
1070
     2
1000
-2000011
1002
}
  0
LINE
  5
102
330
6C
100
AcDbEntity
  8
A-WALL
370
    30
100
AcDbLine
 10
-12284.18587406438
 20
-1334.435676372714
 30
0.0
 11
-12284.18587406439
 21
-9789.7652234413
 31
0.0
1001
REVIT
1002
{
1070
     1
1000
79658
1002
}
1002
{
1070
     5
1000
952
1002
}
1002
{
1070
     2
1000
-2000011
1002
}
  0
INSERT
  5
108
330
6C
100
AcDbEntity
  8
A-----SYP
100
AcDbBlockReference
  2
Elevation - Fre_Piano Tipo0
 10
-14.65826204549378
 20
21011.3766436761
 30
0.0
 41
99.99999999999992
 42
99.99999999999992
 43
99.99999999999992
 50
89.99999999999994
1001
REVIT
1002
{
1070
     1
1000
1281
1002
}
1002
{
1070
     5
1000
910
1002
}
1002
{
1070
     2
1000
-2000535
1002
}
  0
MTEXT
  5
109
330
6C
100
AcDbEntity
  8
A-----SYP
100
AcDbMText
 10
10.57631560428461
 20
21186.06735770125
 30
0.0
 40
245.8832335329339
 41
134.9999999999998
 71
     2
 72
     1
  1
\fArial|b0|i0|c0|p34|;-
 73
     2
 44
0.9385317878468562
1001
REVIT
1002
{
1070
     1
1000
1281
1002
}
1002
{
1070
     5
1000
910
1002
}
1002
{
1070
     2
1000
-2000535
1002
}
1001
ACAD
1000
MTEXTBEGIN
1070
    73
1070
     2
1070
    44
1040
0.9385317878468562
1070
    74
1070
     0
1000
MTEXTEND
  0
INSERT
  5
117
330
6C
100
AcDbEntity
  8
A-----SYP
100
AcDbBlockReference
  2
Elevation - Fre_Piano Tipo2
 10
-14.65826204549486
 20
21011.3766436761
 30
0.0
 41
99.99999999999992
 42
99.99999999999992
 43
99.99999999999992
 50
180.0
1001
REVIT
1002
{
1070
     1
1000
1282
1002
}
1002
{
1070
     5
1000
910
1002
}
1002
{
1070
     2
1000
-2000535
1002
}
  0
MTEXT
  5
118
330
6C
100
AcDbEntity
  8
A-----SYP
100
AcDbMText
 10
-8.519620649305693
 20
20061.04326833605
 30
0.0
 40
245.8832335329339
 41
134.9999999999998
 71
     2
 72
     1
  1
\fArial|b0|i0|c0|p34|;-
 73
     2
 44
0.9385317878468562
1001
REVIT
1002
{
1070
     1
1000
1282
1002
}
1002
{
1070
     5
1000
910
1002
}
1002
{
1070
     2
1000
-2000535
1002
}
1001
ACAD
1000
MTEXTBEGIN
1070
    73
1070
     2
1070
    44
1040
0.9385317878468562
1070
    74
1070
     0
1000
MTEXTEND
1000
ACAD_MTEXT_BBRT
1070
    91
1071
        3
1070
    46
1040
1.25
1070
    64
1071
-989855744
1070
    65
1000

1070
    66
1000

1070
   442
1071
        0
1000
ACAD_MTEXT_BERT
  0
MTEXT
  5
119
330
6C
100
AcDbEntity
  8
A-----SYP
100
AcDbMText
 10
-960.5563165020056
 20
20059.02970136962
 30
0.0
 40
245.8832335329339
 41
884.999999999999
 71
     1
 72
     1
  1
\fArial|b0|i0|c0|p34|;\PNord
 73
     2
 44
0.9385317878468562
1001
REVIT
1002
{
1070
     1
1000
1282
1002
}
1002
{
1070
     5
1000
910
1002
}
1002
{
1070
     2
1000
-2000535
1002
}
1001
ACAD
1000
MTEXTBEGIN
1070
    73
1070
     2
1070
    44
1040
0.9385317878468562
1070
    74
1070
     0
1000
MTEXTEND
1000
ACAD_MTEXT_BBRT
1070
    91
1071
        3
1070
    46
1040
1.25
1070
    64
1071
-989855744
1070
    65
1000

1070
    66
1000

1070
   442
1071
        0
1000
ACAD_MTEXT_BERT
  0
INSERT
  5
11A
330
6C
100
AcDbEntity
  8
A-----SYP
100
AcDbBlockReference
  2
Elevation - Fre_Piano Tipo0
 10
21078.41247099073
 20
4.246846754717254
 30
0.0
 41
99.99999999999992
 42
99.99999999999992
 43
99.99999999999992
1001
REVIT
1002
{
1070
     1
1000
1289
1002
}
1002
{
1070
     5
1000
910
1002
}
1002
{
1070
     2
1000
-2000535
1002
}
  0
MTEXT
  5
11B
330
6C
100
AcDbEntity
  8
A-----SYP
100
AcDbMText
 10
21120.68148994449
 20
111.4339641763341
 30
0.0
 40
245.8832335329339
 41
134.9999999999998
 71
     2
 72
     1
  1
\fArial|b0|i0|c0|p34|;-
 73
     2
 44
0.9385317878468562
1001
REVIT
1002
{
1070
     1
1000
1289
1002
}
1002
{
1070
     5
1000
910
1002
}
1002
{
1070
     2
1000
-2000535
1002
}
1001
ACAD
1000
MTEXTBEGIN
1070
    73
1070
     2
1070
    44
1040
0.9385317878468562
1070
    74
1070
     0
1000
MTEXTEND
  0
INSERT
  5
11C
330
6C
100
AcDbEntity
  8
A-----SYP
100
AcDbBlockReference
  2
Elevation - Fre_Piano Tipo2
 10
21078.41247099073
 20
4.246846754717254
 30
0.0
 41
99.99999999999992
 42
99.99999999999992
 43
99.99999999999992
 50
89.99999999999948
1001
REVIT
1002
{
1070
     1
1000
1290
1002
}
1002
{
1070
     5
1000
910
1002
}
1002
{
1070
     2
1000
-2000535
1002
}
  0
MTEXT
  5
11D
330
6C
100
AcDbEntity
  8
A-----SYP
100
AcDbMText
 10
19995.65740057928
 20
130.529900429931
 30
0.0
 40
245.8832335329339
 41
134.9999999999998
 71
     2
 72
     1
  1
\fArial|b0|i0|c0|p34|;-
 73
     2
 44
0.9385317878468562
1001
REVIT
1002
{
1070
     1
1000
1290
1002
}
1002
{
1070
     5
1000
910
1002
}
1002
{
1070
     2
1000
-2000535
1002
}
1001
ACAD
1000
MTEXTBEGIN
1070
    73
1070
     2
1070
    44
1040
0.9385317878468562
1070
    74
1070
     0
1000
MTEXTEND
1000
ACAD_MTEXT_BBRT
1070
    91
1071
        3
1070
    46
1040
1.25
1070
    64
1071
-989855744
1070
    65
1000

1070
    66
1000

1070
   442
1071
        0
1000
ACAD_MTEXT_BERT
  0
MTEXT
  5
11E
330
6C
100
AcDbEntity
  8
A-----SYP
100
AcDbMText
 10
19465.0682923876
 20
212.6449012112348
 30
0.0
 40
245.8832335329339
 41
590.9999999999994
 71
     1
 72
     1
  1
\fArial|b0|i0|c0|p34|;\PEst
 11
0.0
 21
1.0
 31
0.0
 73
     2
 44
0.9385317878468562
1001
REVIT
1002
{
1070
     1
1000
1290
1002
}
1002
{
1070
     5
1000
910
1002
}
1002
{
1070
     2
1000
-2000535
1002
}
1001
ACAD
1000
MTEXTBEGIN
1070
    73
1070
     2
1070
    44
1040
0.9385317878468562
1070
    74
1070
     0
1000
MTEXTEND
1000
ACAD_MTEXT_BBRT
1070
    91
1071
        3
1070
    46
1040
1.25
1070
    64
1071
-989855744
1070
    65
1000

1070
    66
1000

1070
   442
1071
        0
1000
ACAD_MTEXT_BERT
  0
INSERT
  5
11F
330
6C
100
AcDbEntity
  8
A-----SYP
100
AcDbBlockReference
  2
Elevation - Fre_Piano Tipo0
 10
-21059.6974355531
 20
-29.14413293968301
 30
0.0
 41
99.99999999999992
 42
99.99999999999992
 43
99.99999999999992
 50
180.0
1001
REVIT
1002
{
1070
     1
1000
1297
1002
}
1002
{
1070
     5
1000
910
1002
}
1002
{
1070
     2
1000
-2000535
1002
}
  0
MTEXT
  5
120
330
6C
100
AcDbEntity
  8
A-----SYP
100
AcDbMText
 10
-21101.96645450685
 20
128.5121397814911
 30
0.0
 40
245.8832335329339
 41
134.9999999999998
 71
     2
 72
     1
  1
\fArial|b0|i0|c0|p34|;-
 73
     2
 44
0.9385317878468562
1001
REVIT
1002
{
1070
     1
1000
1297
1002
}
1002
{
1070
     5
1000
910
1002
}
1002
{
1070
     2
1000
-2000535
1002
}
1001
ACAD
1000
MTEXTBEGIN
1070
    73
1070
     2
1070
    44
1040
0.9385317878468562
1070
    74
1070
     0
1000
MTEXTEND
  0
INSERT
  5
121
330
6C
100
AcDbEntity
  8
A-----SYP
100
AcDbBlockReference
  2
Elevation - Fre_Piano Tipo2
 10
-21059.6974355531
 20
-29.14413293968301
 30
0.0
 41
99.99999999999992
 42
99.99999999999992
 43
99.99999999999992
 50
269.9999999999993
1001
REVIT
1002
{
1070
     1
1000
1298
1002
}
1002
{
1070
     5
1000
910
1002
}
1002
{
1070
     2
1000
-2000535
1002
}
  0
MTEXT
  5
122
330
6C
100
AcDbEntity
  8
A-----SYP
100
AcDbMText
 10
-19976.94236514165
 20
109.4162035278906
 30
0.0
 40
245.8832335329339
 41
134.9999999999998
 71
     2
 72
     1
  1
\fArial|b0|i0|c0|p34|;-
 73
     2
 44
0.9385317878468562
1001
REVIT
1002
{
1070
     1
1000
1298
1002
}
1002
{
1070
     5
1000
910
1002
}
1002
{
1070
     2
1000
-2000535
1002
}
1001
ACAD
1000
MTEXTBEGIN
1070
    73
1070
     2
1070
    44
1040
0.9385317878468562
1070
    74
1070
     0
1000
MTEXTEND
1000
ACAD_MTEXT_BBRT
1070
    91
1071
        3
1070
    46
1040
1.25
1070
    64
1071
-989855744
1070
    65
1000

1070
    66
1000

1070
   442
1071
        0
1000
ACAD_MTEXT_BERT
  0
MTEXT
  5
123
330
6C
100
AcDbEntity
  8
A-----SYP
100
AcDbMText
 10
-20107.35049324662
 20
-1130.042187396202
 30
0.0
 40
245.8832335329339
 41
1070.999999999999
 71
     1
 72
     1
  1
\fArial|b0|i0|c0|p34|;\POvest
 11
0.0
 21
1.0
 31
0.0
 73
     2
 44
0.9385317878468562
1001
REVIT
1002
{
1070
     1
1000
1298
1002
}
1002
{
1070
     5
1000
910
1002
}
1002
{
1070
     2
1000
-2000535
1002
}
1001
ACAD
1000
MTEXTBEGIN
1070
    73
1070
     2
1070
    44
1040
0.9385317878468562
1070
    74
1070
     0
1000
MTEXTEND
1000
ACAD_MTEXT_BBRT
1070
    91
1071
        3
1070
    46
1040
1.25
1070
    64
1071
-989855744
1070
    65
1000

1070
    66
1000

1070
   442
1071
        0
1000
ACAD_MTEXT_BERT
  0
INSERT
  5
124
330
6C
100
AcDbEntity
  8
A-----SYP
100
AcDbBlockReference
  2
Elevation - Fre_Piano Tipo0
 10
17.11411623898521
 20
-21080.88967017643
 30
0.0
 41
99.99999999999992
 42
99.99999999999992
 43
99.99999999999992
 50
269.9999999999996
1001
REVIT
1002
{
1070
     1
1000
1305
1002
}
1002
{
1070
     5
1000
910
1002
}
1002
{
1070
     2
1000
-2000535
1002
}
  0
MTEXT
  5
125
330
6C
100
AcDbEntity
  8
A-----SYP
100
AcDbMText
 10
-8.120461410793453
 20
-20990.73699405879
 30
0.0
 40
245.8832335329339
 41
134.9999999999998
 71
     2
 72
     1
  1
\fArial|b0|i0|c0|p34|;-
 73
     2
 44
0.9385317878468562
1001
REVIT
1002
{
1070
     1
1000
1305
1002
}
1002
{
1070
     5
1000
910
1002
}
1002
{
1070
     2
1000
-2000535
1002
}
1001
ACAD
1000
MTEXTBEGIN
1070
    73
1070
     2
1070
    44
1040
0.9385317878468562
1070
    74
1070
     0
1000
MTEXTEND
  0
INSERT
  5
126
330
6C
100
AcDbEntity
  8
A-----SYP
100
AcDbBlockReference
  2
Elevation - Fre_Piano Tipo2
 10
17.11411623898358
 20
-21080.88967017643
 30
0.0
 41
99.99999999999992
 42
99.99999999999992
 43
99.99999999999992
1001
REVIT
1002
{
1070
     1
1000
1306
1002
}
1002
{
1070
     5
1000
910
1002
}
1002
{
1070
     2
1000
-2000535
1002
}
  0
MTEXT
  5
127
330
6C
100
AcDbEntity
  8
A-----SYP
100
AcDbMText
 10
10.97547484280849
 20
-19865.71290469359
 30
0.0
 40
245.8832335329339
 41
134.9999999999998
 71
     2
 72
     1
  1
\fArial|b0|i0|c0|p34|;-
 73
     2
 44
0.9385317878468562
1001
REVIT
1002
{
1070
     1
1000
1306
1002
}
1002
{
1070
     5
1000
910
1002
}
1002
{
1070
     2
1000
-2000535
1002
}
1001
ACAD
1000
MTEXTBEGIN
1070
    73
1070
     2
1070
    44
1040
0.9385317878468562
1070
    74
1070
     0
1000
MTEXTEND
1000
ACAD_MTEXT_BBRT
1070
    91
1071
        3
1070
    46
1040
1.25
1070
    64
1071
-989855744
1070
    65
1000

1070
    66
1000

1070
   442
1071
        0
1000
ACAD_MTEXT_BERT
  0
MTEXT
  5
128
330
6C
100
AcDbEntity
  8
A-----SYP
100
AcDbMText
 10
225.5121706955177
 20
-19467.54549157331
 30
0.0
 40
245.8832335329339
 41
728.9999999999991
 71
     1
 72
     1
  1
\fArial|b0|i0|c0|p34|;\PSud
 73
     2
 44
0.9385317878468562
1001
REVIT
1002
{
1070
     1
1000
1306
1002
}
1002
{
1070
     5
1000
910
1002
}
1002
{
1070
     2
1000
-2000535
1002
}
1001
ACAD
1000
MTEXTBEGIN
1070
    73
1070
     2
1070
    44
1040
0.9385317878468562
1070
    74
1070
     0
1000
MTEXTEND
1000
ACAD_MTEXT_BBRT
1070
    91
1071
        3
1070
    46
1040
1.25
1070
    64
1071
-989855744
1070
    65
1000

1070
    66
1000

1070
   442
1071
        0
1000
ACAD_MTEXT_BERT
  0
INSERT
  5
12E
330
6C
100
AcDbEntity
  8
S-GRIDIDM
100
AcDbBlockReference
  2
Grid - Estremit_Piano Tipo0
 10
-9133.638042886476
 20
-12584.58343805378
 30
0.0
 41
99.99999999999992
 42
99.99999999999992
 43
99.99999999999992
 50
180.0
1001
REVIT
1002
{
1070
     1
1000
78853
1002
}
1002
{
1070
     5
1000
968
1002
}
1002
{
1070
     2
1000
-2006040
1002
}
  0
MTEXT
  5
12F
330
6C
100
AcDbEntity
  8
S-GRIDIDM
100
AcDbMText
 10
-9133.515973369522
 20
-12343.64486901769
 30
0.0
 40
442.5898203592809
 41
410.3596102745788
 71
     2
 72
     1
  1
\fArial|b0|i0|c0|p34|;1
 73
     2
 44
0.9385317878468562
1001
REVIT
1002
{
1070
     1
1000
78853
1002
}
1002
{
1070
     5
1000
968
1002
}
1002
{
1070
     2
1000
-2006040
1002
}
1001
ACAD
1000
MTEXTBEGIN
1070
    73
1070
     2
1070
    44
1040
0.9385317878468562
1070
    74
1070
     0
1000
MTEXTEND
1000
ACAD_MTEXT_BBRT
1070
    91
1071
        3
1070
    46
1040
1.25
1070
    64
1071
-989855744
1070
    65
1000

1070
    66
1000

1070
   442
1071
        0
1000
ACAD_MTEXT_BERT
  0
LINE
  5
131
330
6C
100
AcDbEntity
  8
S-GRIDIDM
  6
Linea di griglia
100
AcDbLine
 10
-9133.638042886442
 20
12955.35861474987
 30
0.0
 11
-9133.638042886481
 21
-11934.58343805379
 31
0.0
1001
REVIT
1002
{
1070
     1
1000
78853
1002
}
1002
{
1070
     5
1000
968
1002
}
1002
{
1070
     2
1000
-2000220
1002
}
  0
INSERT
  5
132
330
6C
100
AcDbEntity
  8
S-GRIDIDM
100
AcDbBlockReference
  2
Grid - Estremit_Piano Tipo0
 10
-2538.86707163081
 20
-12584.58343805379
 30
0.0
 41
99.99999999999992
 42
99.99999999999992
 43
99.99999999999992
 50
180.0
1001
REVIT
1002
{
1070
     1
1000
78930
1002
}
1002
{
1070
     5
1000
968
1002
}
1002
{
1070
     2
1000
-2006040
1002
}
  0
MTEXT
  5
133
330
6C
100
AcDbEntity
  8
S-GRIDIDM
100
AcDbMText
 10
-2538.745002113855
 20
-12343.6448690177
 30
0.0
 40
442.5898203592809
 41
410.3596102745788
 71
     2
 72
     1
  1
\fArial|b0|i0|c0|p34|;2
 73
     2
 44
0.9385317878468562
1001
REVIT
1002
{
1070
     1
1000
78930
1002
}
1002
{
1070
     5
1000
968
1002
}
1002
{
1070
     2
1000
-2006040
1002
}
1001
ACAD
1000
MTEXTBEGIN
1070
    73
1070
     2
1070
    44
1040
0.9385317878468562
1070
    74
1070
     0
1000
MTEXTEND
1000
ACAD_MTEXT_BBRT
1070
    91
1071
        3
1070
    46
1040
1.25
1070
    64
1071
-989855744
1070
    65
1000

1070
    66
1000

1070
   442
1071
        0
1000
ACAD_MTEXT_BERT
  0
LINE
  5
134
330
6C
100
AcDbEntity
  8
S-GRIDIDM
  6
Linea di griglia
100
AcDbLine
 10
-2538.86707163077
 20
13451.73922548954
 30
0.0
 11
-2538.867071630811
 21
-11934.5834380538
 31
0.0
1001
REVIT
1002
{
1070
     1
1000
78930
1002
}
1002
{
1070
     5
1000
968
1002
}
1002
{
1070
     2
1000
-2000220
1002
}
  0
INSERT
  5
135
330
6C
100
AcDbEntity
  8
S-GRIDIDM
100
AcDbBlockReference
  2
Grid - Estremit_Piano Tipo0
 10
5847.854796138628
 20
-12437.03338219589
 30
0.0
 41
99.99999999999992
 42
99.99999999999992
 43
99.99999999999992
 50
181.9999999999995
1001
REVIT
1002
{
1070
     1
1000
79004
1002
}
1002
{
1070
     5
1000
968
1002
}
1002
{
1070
     2
1000
-2006040
1002
}
  0
MTEXT
  5
136
330
6C
100
AcDbEntity
  8
S-GRIDIDM
100
AcDbMText
 10
5847.886767417422
 20
-12196.09212436771
 30
0.0
 40
442.5898203592809
 41
410.3596102745788
 71
     2
 72
     1
  1
\fArial|b0|i0|c0|p34|;3
 73
     2
 44
0.9385317878468562
1001
REVIT
1002
{
1070
     1
1000
79004
1002
}
1002
{
1070
     5
1000
968
1002
}
1002
{
1070
     2
1000
-2006040
1002
}
1001
ACAD
1000
MTEXTBEGIN
1070
    73
1070
     2
1070
    44
1040
0.9385317878468562
1070
    74
1070
     0
1000
MTEXTEND
1000
ACAD_MTEXT_BBRT
1070
    91
1071
        3
1070
    46
1040
1.25
1070
    64
1071
-989855744
1070
    65
1000

1070
    66
1000

1070
   442
1071
        0
1000
ACAD_MTEXT_BERT
  0
LINE
  5
137
330
6C
100
AcDbEntity
  8
S-GRIDIDM
  6
Linea di griglia
100
AcDbLine
 10
4961.132928369229
 20
12955.35861474984
 30
0.0
 11
5825.170123282008
 21
-11787.42934463348
 31
0.0
1001
REVIT
1002
{
1070
     1
1000
79004
1002
}
1002
{
1070
     5
1000
968
1002
}
1002
{
1070
     2
1000
-2000220
1002
}
  0
INSERT
  5
138
330
6C
100
AcDbEntity
  8
S-GRIDIDM
100
AcDbBlockReference
  2
Grid - Estremit_Piano Tipo0
 10
12494.37428219931
 20
-12584.58343805382
 30
0.0
 41
99.99999999999992
 42
99.99999999999992
 43
99.99999999999992
 50
180.0
1001
REVIT
1002
{
1070
     1
1000
79052
1002
}
1002
{
1070
     5
1000
968
1002
}
1002
{
1070
     2
1000
-2006040
1002
}
  0
MTEXT
  5
139
330
6C
100
AcDbEntity
  8
S-GRIDIDM
100
AcDbMText
 10
12494.49635171627
 20
-12343.64486901773
 30
0.0
 40
442.5898203592809
 41
410.3596102745788
 71
     2
 72
     1
  1
\fArial|b0|i0|c0|p34|;4
 73
     2
 44
0.9385317878468562
1001
REVIT
1002
{
1070
     1
1000
79052
1002
}
1002
{
1070
     5
1000
968
1002
}
1002
{
1070
     2
1000
-2006040
1002
}
1001
ACAD
1000
MTEXTBEGIN
1070
    73
1070
     2
1070
    44
1040
0.9385317878468562
1070
    74
1070
     0
1000
MTEXTEND
1000
ACAD_MTEXT_BBRT
1070
    91
1071
        3
1070
    46
1040
1.25
1070
    64
1071
-989855744
1070
    65
1000

1070
    66
1000

1070
   442
1071
        0
1000
ACAD_MTEXT_BERT
  0
LINE
  5
13A
330
6C
100
AcDbEntity
  8
S-GRIDIDM
  6
Linea di griglia
100
AcDbLine
 10
12494.37428219936
 20
12246.24345655033
 30
0.0
 11
12494.37428219932
 21
-11934.58343805383
 31
0.0
1001
REVIT
1002
{
1070
     1
1000
79052
1002
}
1002
{
1070
     5
1000
968
1002
}
1002
{
1070
     2
1000
-2000220
1002
}
  0
INSERT
  5
13B
330
6C
100
AcDbEntity
  8
S-GRIDIDM
100
AcDbBlockReference
  2
Grid - Estremit_Piano Tipo0
 10
15058.98520933809
 20
7327.510814625782
 30
0.0
 41
99.99999999999992
 42
99.99999999999992
 43
99.99999999999992
 50
269.9999999999994
1001
REVIT
1002
{
1070
     1
1000
79116
1002
}
1002
{
1070
     5
1000
968
1002
}
1002
{
1070
     2
1000
-2006040
1002
}
  0
MTEXT
  5
13C
330
6C
100
AcDbEntity
  8
S-GRIDIDM
100
AcDbMText
 10
15056.40569143051
 20
7565.991935271248
 30
0.0
 40
442.5898203592809
 41
410.3596102745788
 71
     2
 72
     1
  1
\fArial|b0|i0|c0|p34|;5
 73
     2
 44
0.9385317878468562
1001
REVIT
1002
{
1070
     1
1000
79116
1002
}
1002
{
1070
     5
1000
968
1002
}
1002
{
1070
     2
1000
-2006040
1002
}
1001
ACAD
1000
MTEXTBEGIN
1070
    73
1070
     2
1070
    44
1040
0.9385317878468562
1070
    74
1070
     0
1000
MTEXTEND
1000
ACAD_MTEXT_BBRT
1070
    91
1071
        3
1070
    46
1040
1.25
1070
    64
1071
-989855744
1070
    65
1000

1070
    66
1000

1070
   442
1071
        0
1000
ACAD_MTEXT_BERT
  0
LINE
  5
13D
330
6C
100
AcDbEntity
  8
S-GRIDIDM
  6
Linea di griglia
100
AcDbLine
 10
-14065.12061785846
 20
7327.51081462588
 30
0.0
 11
14408.9852093381
 21
7327.510814625788
 31
0.0
1001
REVIT
1002
{
1070
     1
1000
79116
1002
}
1002
{
1070
     5
1000
968
1002
}
1002
{
1070
     2
1000
-2000220
1002
}
  0
INSERT
  5
13E
330
6C
100
AcDbEntity
  8
S-GRIDIDM
100
AcDbBlockReference
  2
Grid - Estremit_Piano Tipo0
 10
15058.98520933806
 20
-272.4891853742144
 30
0.0
 41
99.99999999999992
 42
99.99999999999992
 43
99.99999999999992
 50
269.9999999999994
1001
REVIT
1002
{
1070
     1
1000
79181
1002
}
1002
{
1070
     5
1000
968
1002
}
1002
{
1070
     2
1000
-2006040
1002
}
  0
MTEXT
  5
13F
330
6C
100
AcDbEntity
  8
S-GRIDIDM
100
AcDbMText
 10
15056.40569143049
 20
-34.00806472874766
 30
0.0
 40
442.5898203592809
 41
410.3596102745788
 71
     2
 72
     1
  1
\fArial|b0|i0|c0|p34|;6
 73
     2
 44
0.9385317878468562
1001
REVIT
1002
{
1070
     1
1000
79181
1002
}
1002
{
1070
     5
1000
968
1002
}
1002
{
1070
     2
1000
-2006040
1002
}
1001
ACAD
1000
MTEXTBEGIN
1070
    73
1070
     2
1070
    44
1040
0.9385317878468562
1070
    74
1070
     0
1000
MTEXTEND
1000
ACAD_MTEXT_BBRT
1070
    91
1071
        3
1070
    46
1040
1.25
1070
    64
1071
-989855744
1070
    65
1000

1070
    66
1000

1070
   442
1071
        0
1000
ACAD_MTEXT_BERT
  0
LINE
  5
140
330
6C
100
AcDbEntity
  8
S-GRIDIDM
  6
Linea di griglia
100
AcDbLine
 10
-14065.12061785849
 20
-272.4891853741205
 30
0.0
 11
14408.98520933808
 21
-272.4891853742125
 31
0.0
1001
REVIT
1002
{
1070
     1
1000
79181
1002
}
1002
{
1070
     5
1000
968
1002
}
1002
{
1070
     2
1000
-2000220
1002
}
  0
INSERT
  5
141
330
6C
100
AcDbEntity
  8
S-GRIDIDM
100
AcDbBlockReference
  2
Grid - Estremit_Piano Tipo0
 10
15058.98520933804
 20
-7072.489185374209
 30
0.0
 41
99.99999999999992
 42
99.99999999999992
 43
99.99999999999992
 50
269.9999999999994
1001
REVIT
1002
{
1070
     1
1000
79241
1002
}
1002
{
1070
     5
1000
968
1002
}
1002
{
1070
     2
1000
-2006040
1002
}
  0
MTEXT
  5
142
330
6C
100
AcDbEntity
  8
S-GRIDIDM
100
AcDbMText
 10
15056.40569143046
 20
-6834.008064728744
 30
0.0
 40
442.5898203592809
 41
410.3596102745788
 71
     2
 72
     1
  1
\fArial|b0|i0|c0|p34|;7
 73
     2
 44
0.9385317878468562
1001
REVIT
1002
{
1070
     1
1000
79241
1002
}
1002
{
1070
     5
1000
968
1002
}
1002
{
1070
     2
1000
-2006040
1002
}
1001
ACAD
1000
MTEXTBEGIN
1070
    73
1070
     2
1070
    44
1040
0.9385317878468562
1070
    74
1070
     0
1000
MTEXTEND
1000
ACAD_MTEXT_BBRT
1070
    91
1071
        3
1070
    46
1040
1.25
1070
    64
1071
-989855744
1070
    65
1000

1070
    66
1000

1070
   442
1071
        0
1000
ACAD_MTEXT_BERT
  0
LINE
  5
143
330
6C
100
AcDbEntity
  8
S-GRIDIDM
  6
Linea di griglia
100
AcDbLine
 10
-14065.12061785851
 20
-7072.489185374121
 30
0.0
 11
14408.98520933805
 21
-7072.489185374213
 31
0.0
1001
REVIT
1002
{
1070
     1
1000
79241
1002
}
1002
{
1070
     5
1000
968
1002
}
1002
{
1070
     2
1000
-2000220
1002
}
  0
ENDSEC
  0
SECTION
  2
OBJECTS
  0
DICTIONARY
  5
C
330
0
100
AcDbDictionary
281
     1
  3
ACAD_CIP_PREVIOUS_PRODUCT_INFO
350
75
  3
ACAD_COLOR
350
63
  3
ACAD_GROUP
350
D
  3
ACAD_IMAGE_VARS
350
76
  3
ACAD_LAYOUT
350
62
  3
ACAD_MATERIAL
350
10
  3
ACAD_MLEADERSTYLE
350
66
  3
ACAD_MLINESTYLE
350
5F
  3
ACAD_PLOTSETTINGS
350
61
  3
ACAD_PLOTSTYLENAME
350
E
  3
ACAD_SCALELIST
350
42
  3
ACAD_TABLESTYLE
350
64
  3
ACAD_VISUALSTYLE
350
29
  3
ACDB_RECOMPOSE_DATA
350
152
  3
AcDbVariableDictionary
350
77
  3
REVIT_DICTIONARY
350
144
  0
DICTIONARY
  5
14A
330
6C
100
AcDbDictionary
280
     1
281
     1
  3
ACAD_SORTENTS
360
14B
  0
XRECORD
  5
75
102
{ACAD_REACTORS
330
C
102
}
330
C
100
AcDbXrecord
280
     1
300
REVIT
300
2012
300
REVIT2012
  0
DICTIONARY
  5
63
102
{ACAD_REACTORS
330
C
102
}
330
C
100
AcDbDictionary
281
     1
  0
DICTIONARY
  5
D
102
{ACAD_REACTORS
330
C
102
}
330
C
100
AcDbDictionary
281
     1
  0
RASTERVARIABLES
  5
76
102
{ACAD_REACTORS
330
C
102
}
330
C
100
AcDbRasterVariables
 90
        0
 70
     0
 71
     1
 72
     1
  0
DICTIONARY
  5
62
102
{ACAD_REACTORS
330
C
102
}
330
C
100
AcDbDictionary
281
     1
  3
Layout1
350
6B
  3
Layout2
350
73
  3
Model
350
6F
  0
DICTIONARY
  5
10
102
{ACAD_REACTORS
330
C
102
}
330
C
100
AcDbDictionary
281
     1
  3
ByBlock
350
19
  3
ByLayer
350
11
  3
Global
350
21
  0
DICTIONARY
  5
66
102
{ACAD_REACTORS
330
C
102
}
330
C
100
AcDbDictionary
281
     1
  3
Standard
350
67
  0
DICTIONARY
  5
5F
102
{ACAD_REACTORS
330
C
102
}
330
C
100
AcDbDictionary
281
     1
  3
Standard
350
60
  0
DICTIONARY
  5
61
102
{ACAD_REACTORS
330
C
102
}
330
C
100
AcDbDictionary
281
     1
  0
ACDBDICTIONARYWDFLT
  5
E
102
{ACAD_REACTORS
330
C
102
}
330
C
100
AcDbDictionary
281
     1
  3
Normal
350
F
100
AcDbDictionaryWithDefault
340
F
  0
DICTIONARY
  5
42
102
{ACAD_REACTORS
330
C
102
}
330
C
100
AcDbDictionary
281
     1
  3
A0
350
43
  3
A1
350
44
  3
A2
350
45
  3
A3
350
46
  3
A4
350
47
  3
A5
350
48
  3
A6
350
49
  3
A7
350
4A
  3
A8
350
4B
  3
A9
350
4C
  3
B0
350
4D
  3
B1
350
4E
  3
B2
350
4F
  3
B3
350
50
  3
B4
350
51
  3
B5
350
52
  3
B6
350
53
  0
DICTIONARY
  5
64
102
{ACAD_REACTORS
330
C
102
}
330
C
100
AcDbDictionary
281
     1
  3
Standard
350
65
  0
DICTIONARY
  5
29
102
{ACAD_REACTORS
330
C
102
}
330
C
100
AcDbDictionary
281
     1
  3
2dWireframe
350
2F
  3
Basic
350
2E
  3
Brighten
350
35
  3
ColorChange
350
39
  3
Conceptual
350
32
  3
Dim
350
34
  3
EdgeColorOff
350
41
  3
Facepattern
350
38
  3
Flat
350
2A
  3
FlatWithEdges
350
2B
  3
Gouraud
350
2C
  3
GouraudWithEdges
350
2D
  3
Hidden
350
31
  3
JitterOff
350
3F
  3
Linepattern
350
37
  3
OverhangOff
350
40
  3
Realistic
350
33
  3
Shaded
350
3E
  3
Shaded with edges
350
3D
  3
Shades of Gray
350
3A
  3
Sketchy
350
3B
  3
Thicken
350
36
  3
Wireframe
350
30
  3
X-Ray
350
3C
  0
XRECORD
  5
152
102
{ACAD_REACTORS
330
C
102
}
330
C
100
AcDbXrecord
280
     1
 90
        1
330
65
  0
DICTIONARY
  5
77
102
{ACAD_REACTORS
330
C
102
}
330
C
100
AcDbDictionary
281
     1
  3
CANNOSCALE
350
7B
  3
CMLEADERSTYLE
350
79
  3
CTABLESTYLE
350
78
  3
DIMASSOC
350
82
  3
HIDETEXT
350
81
  3
INDEXCTL
350
80
  3
LAYEREVAL
350
7D
  3
LAYERNOTIFY
350
7E
  3
LIGHTINGUNITS
350
7C
  3
MSLTSCALE
350
7A
  3
SORTENTS
350
7F
  3
XCLIPFRAME
350
83
  0
DICTIONARY
  5
144
102
{ACAD_REACTORS
330
C
102
}
330
C
100
AcDbDictionary
281
     1
  3
DRAWING_TOOL
350
149
  3
REVIT_CATEGORY_MAPPING
350
148
  3
REVIT_GET_SITE
350
145
  3
REVIT_TYPE_MAPPING
350
147
  0
SORTENTSTABLE
  5
14B
102
{ACAD_REACTORS
330
14A
102
}
330
14A
100
AcDbSortentsTable
330
6C
  0
LAYOUT
  5
6B
102
{ACAD_XDICTIONARY
360
188
102
}
102
{ACAD_REACTORS
330
62
102
}
330
62
100
AcDbPlotSettings
  1

  2

  4

  6

 40
0.0
 41
0.0
 42
0.0
 43
0.0
 44
0.0
 45
0.0
 46
0.0
 47
0.0
 48
0.0
 49
0.0
140
0.0
141
0.0
142
1.0
143
1.0
 70
   688
 72
     0
 73
     0
 74
     5
  7

 75
    16
147
1.0
148
0.0
149
0.0
100
AcDbLayout
  1
Layout1
 70
     1
 71
     1
 10
0.0
 20
0.0
 11
12.0
 21
9.0
 12
0.0
 22
0.0
 32
0.0
 14
0.0
 24
0.0
 34
0.0
 15
0.0
 25
0.0
 35
0.0
146
0.0
 13
0.0
 23
0.0
 33
0.0
 16
1.0
 26
0.0
 36
0.0
 17
0.0
 27
1.0
 37
0.0
 76
     0
330
68
  0
LAYOUT
  5
73
102
{ACAD_XDICTIONARY
360
18C
102
}
102
{ACAD_REACTORS
330
62
102
}
330
62
100
AcDbPlotSettings
  1

  2

  4

  6

 40
0.0
 41
0.0
 42
0.0
 43
0.0
 44
0.0
 45
0.0
 46
0.0
 47
0.0
 48
0.0
 49
0.0
140
0.0
141
0.0
142
1.0
143
1.0
 70
   688
 72
     0
 73
     0
 74
     5
  7

 75
    16
147
1.0
148
0.0
149
0.0
100
AcDbLayout
  1
Layout2
 70
     1
 71
     2
 10
0.0
 20
0.0
 11
12.0
 21
9.0
 12
0.0
 22
0.0
 32
0.0
 14
0.0
 24
0.0
 34
0.0
 15
0.0
 25
0.0
 35
0.0
146
0.0
 13
0.0
 23
0.0
 33
0.0
 16
1.0
 26
0.0
 36
0.0
 17
0.0
 27
1.0
 37
0.0
 76
     0
330
70
  0
LAYOUT
  5
6F
102
{ACAD_XDICTIONARY
360
18A
102
}
102
{ACAD_REACTORS
330
62
102
}
330
62
100
AcDbPlotSettings
  1

  2

  4

  6

 40
0.0
 41
0.0
 42
0.0
 43
0.0
 44
0.0
 45
0.0
 46
0.0
 47
0.0
 48
0.0
 49
0.0
140
0.0
141
0.0
142
1.0
143
1.0
 70
  1712
 72
     0
 73
     0
 74
     0
  7

 75
     0
147
1.0
148
0.0
149
0.0
100
AcDbLayout
  1
Model
 70
     1
 71
     0
 10
0.0
 20
0.0
 11
12.0
 21
9.0
 12
0.0
 22
0.0
 32
0.0
 14
0.0
 24
0.0
 34
0.0
 15
0.0
 25
0.0
 35
0.0
146
0.0
 13
0.0
 23
0.0
 33
0.0
 16
1.0
 26
0.0
 36
0.0
 17
0.0
 27
1.0
 37
0.0
 76
     0
330
6C
  0
MATERIAL
  5
19
102
{ACAD_XDICTIONARY
360
1A
102
}
102
{ACAD_REACTORS
330
10
102
}
330
10
100
AcDbMaterial
  1
ByBlock
 72
     0
 43
0.0208333333333333
 43
0.0
 43
0.0
 43
0.0
 43
0.0
 43
0.0208333333333333
 43
0.0
 43
0.0
 43
0.0
 43
0.0
 43
1.0
 43
0.0
 43
0.0
 43
0.0
 43
0.0
 43
1.0
 77
     0
 47
0.0208333333333333
 47
0.0
 47
0.0
 47
0.0
 47
0.0
 47
0.0208333333333333
 47
0.0
 47
0.0
 47
0.0
 47
0.0
 47
1.0
 47
0.0
 47
0.0
 47
0.0
 47
0.0
 47
1.0
171
     0
 49
0.0208333333333333
 49
0.0
 49
0.0
 49
0.0
 49
0.0
 49
0.0208333333333333
 49
0.0
 49
0.0
 49
0.0
 49
0.0
 49
1.0
 49
0.0
 49
0.0
 49
0.0
 49
0.0
 49
1.0
175
     0
142
0.0208333333333333
142
0.0
142
0.0
142
0.0
142
0.0
142
0.0208333333333333
142
0.0
142
0.0
142
0.0
142
0.0
142
1.0
142
0.0
142
0.0
142
0.0
142
0.0
142
1.0
179
     0
144
0.0208333333333333
144
0.0
144
0.0
144
0.0
144
0.0
144
0.0208333333333333
144
0.0
144
0.0
144
0.0
144
0.0
144
1.0
144
0.0
144
0.0
144
0.0
144
0.0
144
1.0
147
0.0208333333333333
147
0.0
147
0.0
147
0.0
147
0.0
147
0.0208333333333333
147
0.0
147
0.0
147
0.0
147
0.0
147
1.0
147
0.0
147
0.0
147
0.0
147
0.0
147
1.0
  0
MATERIAL
  5
11
102
{ACAD_XDICTIONARY
360
12
102
}
102
{ACAD_REACTORS
330
10
102
}
330
10
100
AcDbMaterial
  1
ByLayer
 72
     0
 43
0.0208333333333333
 43
0.0
 43
0.0
 43
0.0
 43
0.0
 43
0.0208333333333333
 43
0.0
 43
0.0
 43
0.0
 43
0.0
 43
1.0
 43
0.0
 43
0.0
 43
0.0
 43
0.0
 43
1.0
 77
     0
 47
0.0208333333333333
 47
0.0
 47
0.0
 47
0.0
 47
0.0
 47
0.0208333333333333
 47
0.0
 47
0.0
 47
0.0
 47
0.0
 47
1.0
 47
0.0
 47
0.0
 47
0.0
 47
0.0
 47
1.0
171
     0
 49
0.0208333333333333
 49
0.0
 49
0.0
 49
0.0
 49
0.0
 49
0.0208333333333333
 49
0.0
 49
0.0
 49
0.0
 49
0.0
 49
1.0
 49
0.0
 49
0.0
 49
0.0
 49
0.0
 49
1.0
175
     0
142
0.0208333333333333
142
0.0
142
0.0
142
0.0
142
0.0
142
0.0208333333333333
142
0.0
142
0.0
142
0.0
142
0.0
142
1.0
142
0.0
142
0.0
142
0.0
142
0.0
142
1.0
179
     0
144
0.0208333333333333
144
0.0
144
0.0
144
0.0
144
0.0
144
0.0208333333333333
144
0.0
144
0.0
144
0.0
144
0.0
144
1.0
144
0.0
144
0.0
144
0.0
144
0.0
144
1.0
147
0.0208333333333333
147
0.0
147
0.0
147
0.0
147
0.0
147
0.0208333333333333
147
0.0
147
0.0
147
0.0
147
0.0
147
1.0
147
0.0
147
0.0
147
0.0
147
0.0
147
1.0
  0
MATERIAL
  5
21
102
{ACAD_XDICTIONARY
360
22
102
}
102
{ACAD_REACTORS
330
10
102
}
330
10
100
AcDbMaterial
  1
Global
 72
     0
 43
0.0208333333333333
 43
0.0
 43
0.0
 43
0.0
 43
0.0
 43
0.0208333333333333
 43
0.0
 43
0.0
 43
0.0
 43
0.0
 43
1.0
 43
0.0
 43
0.0
 43
0.0
 43
0.0
 43
1.0
 77
     0
 47
0.0208333333333333
 47
0.0
 47
0.0
 47
0.0
 47
0.0
 47
0.0208333333333333
 47
0.0
 47
0.0
 47
0.0
 47
0.0
 47
1.0
 47
0.0
 47
0.0
 47
0.0
 47
0.0
 47
1.0
171
     0
 49
0.0208333333333333
 49
0.0
 49
0.0
 49
0.0
 49
0.0
 49
0.0208333333333333
 49
0.0
 49
0.0
 49
0.0
 49
0.0
 49
1.0
 49
0.0
 49
0.0
 49
0.0
 49
0.0
 49
1.0
175
     0
142
0.0208333333333333
142
0.0
142
0.0
142
0.0
142
0.0
142
0.0208333333333333
142
0.0
142
0.0
142
0.0
142
0.0
142
1.0
142
0.0
142
0.0
142
0.0
142
0.0
142
1.0
179
     0
144
0.0208333333333333
144
0.0
144
0.0
144
0.0
144
0.0
144
0.0208333333333333
144
0.0
144
0.0
144
0.0
144
0.0
144
1.0
144
0.0
144
0.0
144
0.0
144
0.0
144
1.0
147
0.0208333333333333
147
0.0
147
0.0
147
0.0
147
0.0
147
0.0208333333333333
147
0.0
147
0.0
147
0.0
147
0.0
147
1.0
147
0.0
147
0.0
147
0.0
147
0.0
147
1.0
  0
MLEADERSTYLE
  5
67
102
{ACAD_XDICTIONARY
360
150
102
}
102
{ACAD_REACTORS
330
66
102
}
330
66
100
AcDbMLeaderStyle
170
     2
171
     1
172
     0
 90
        2
 40
0.0
 41
0.0
173
     1
 91
-1056964608
340
5B
 92
       -2
290
     1
 42
0.09
291
     1
 43
0.36
  3
Standard
 44
0.18
300

342
55
174
     1
178
     6
175
     1
176
     0
 93
-1056964608
 45
0.18
292
     0
297
     0
 46
0.18
 94
-1056964608
 47
1.0
 49
1.0
140
1.0
293
     1
141
0.0
294
     1
177
     0
142
1.0
295
     0
296
     0
143
0.125
1001
ACAD_MLEADERVER
1070
     2
  0
MLINESTYLE
  5
60
102
{ACAD_REACTORS
330
5F
102
}
330
5F
100
AcDbMlineStyle
  2
STANDARD
 70
     0
  3

 62
   256
 51
90.0
 52
90.0
 71
     2
 49
0.5
 62
   256
  6
BYLAYER
 49
-0.5
 62
   256
  6
BYLAYER
  0
ACDBPLACEHOLDER
  5
F
102
{ACAD_REACTORS
330
E
102
}
330
E
  0
SCALE
  5
43
102
{ACAD_REACTORS
330
42
102
}
330
42
100
AcDbScale
 70
     0
300
1:1
140
1.0
141
1.0
290
     1
  0
SCALE
  5
44
102
{ACAD_REACTORS
330
42
102
}
330
42
100
AcDbScale
 70
     0
300
1/128" = 1'-0"
140
0.0078125
141
12.0
290
     0
  0
SCALE
  5
45
102
{ACAD_REACTORS
330
42
102
}
330
42
100
AcDbScale
 70
     0
300
1/64" = 1'-0"
140
0.015625
141
12.0
290
     0
  0
SCALE
  5
46
102
{ACAD_REACTORS
330
42
102
}
330
42
100
AcDbScale
 70
     0
300
1/32" = 1'-0"
140
0.03125
141
12.0
290
     0
  0
SCALE
  5
47
102
{ACAD_REACTORS
330
42
102
}
330
42
100
AcDbScale
 70
     0
300
1/16" = 1'-0"
140
0.0625
141
12.0
290
     0
  0
SCALE
  5
48
102
{ACAD_REACTORS
330
42
102
}
330
42
100
AcDbScale
 70
     0
300
3/32" = 1'-0"
140
0.09375
141
12.0
290
     0
  0
SCALE
  5
49
102
{ACAD_REACTORS
330
42
102
}
330
42
100
AcDbScale
 70
     0
300
1/8" = 1'-0"
140
0.125
141
12.0
290
     0
  0
SCALE
  5
4A
102
{ACAD_REACTORS
330
42
102
}
330
42
100
AcDbScale
 70
     0
300
3/16" = 1'-0"
140
0.1875
141
12.0
290
     0
  0
SCALE
  5
4B
102
{ACAD_REACTORS
330
42
102
}
330
42
100
AcDbScale
 70
     0
300
1/4" = 1'-0"
140
0.25
141
12.0
290
     0
  0
SCALE
  5
4C
102
{ACAD_REACTORS
330
42
102
}
330
42
100
AcDbScale
 70
     0
300
3/8" = 1'-0"
140
0.375
141
12.0
290
     0
  0
SCALE
  5
4D
102
{ACAD_REACTORS
330
42
102
}
330
42
100
AcDbScale
 70
     0
300
1/2" = 1'-0"
140
0.5
141
12.0
290
     0
  0
SCALE
  5
4E
102
{ACAD_REACTORS
330
42
102
}
330
42
100
AcDbScale
 70
     0
300
3/4" = 1'-0"
140
0.75
141
12.0
290
     0
  0
SCALE
  5
4F
102
{ACAD_REACTORS
330
42
102
}
330
42
100
AcDbScale
 70
     0
300
1" = 1'-0"
140
1.0
141
12.0
290
     0
  0
SCALE
  5
50
102
{ACAD_REACTORS
330
42
102
}
330
42
100
AcDbScale
 70
     0
300
1-1/2" = 1'-0"
140
1.5
141
12.0
290
     0
  0
SCALE
  5
51
102
{ACAD_REACTORS
330
42
102
}
330
42
100
AcDbScale
 70
     0
300
3" = 1'-0"
140
3.0
141
12.0
290
     0
  0
SCALE
  5
52
102
{ACAD_REACTORS
330
42
102
}
330
42
100
AcDbScale
 70
     0
300
6" = 1'-0"
140
6.0
141
12.0
290
     0
  0
SCALE
  5
53
102
{ACAD_REACTORS
330
42
102
}
330
42
100
AcDbScale
 70
     0
300
1'-0" = 1'-0"
140
12.0
141
12.0
290
     0
  0
TABLESTYLE
  5
65
102
{ACAD_XDICTIONARY
360
14E
102
}
102
{ACAD_REACTORS
330
64
102
}
330
64
100
AcDbTableStyle
  3
Standard
 70
     0
 71
     0
 40
0.06
 41
0.06
280
     0
281
     0
  7
Standard
140
0.18
170
     2
 62
     0
 63
     7
283
     0
274
    -2
284
     1
 64
     0
275
    -2
285
     1
 65
     0
276
    -2
286
     1
 66
     0
277
    -2
287
     1
 67
     0
278
    -2
288
     1
 68
     0
279
    -2
289
     1
 69
     0
  7
Standard
140
0.25
170
     5
 62
     0
 63
     7
283
     0
274
    -2
284
     1
 64
     0
275
    -2
285
     1
 65
     0
276
    -2
286
     1
 66
     0
277
    -2
287
     1
 67
     0
278
    -2
288
     1
 68
     0
279
    -2
289
     1
 69
     0
  7
Standard
140
0.18
170
     5
 62
     0
 63
     7
283
     0
274
    -2
284
     1
 64
     0
275
    -2
285
     1
 65
     0
276
    -2
286
     1
 66
     0
277
    -2
287
     1
 67
     0
278
    -2
288
     1
 68
     0
279
    -2
289
     1
 69
     0
  0
VISUALSTYLE
  5
2F
102
{ACAD_XDICTIONARY
360
160
102
}
102
{ACAD_REACTORS
330
29
102
}
330
29
100
AcDbVisualStyle
  2
2dWireframe
 70
     4
 71
     0
 72
     2
 73
     0
 90
        0
 40
-0.6
 41
-30.0
 62
     5
 63
     7
 74
     1
 91
        4
 64
     7
 65
   257
 75
     1
175
     1
 42
1.0
 92
        0
 66
   257
 43
1.0
 76
     1
 77
     6
 78
     2
 67
     7
 79
     5
170
     0
171
     0
290
     0
174
     0
 93
        1
 44
0.0
173
     0
291
     0
 45
0.0
1001
ACAD
1000
AcDbSavedByObjectVersion
1070
     0
  0
VISUALSTYLE
  5
2E
102
{ACAD_XDICTIONARY
360
15E
102
}
102
{ACAD_REACTORS
330
29
102
}
330
29
100
AcDbVisualStyle
  2
Basic
 70
     7
 71
     1
 72
     0
 73
     1
 90
        0
 40
-0.6
 41
-30.0
 62
     5
 63
     7
 74
     0
 91
        4
 64
     7
 65
   257
 75
     1
175
     1
 42
1.0
 92
        8
 66
     7
 43
1.0
 76
     1
 77
     6
 78
     2
 67
     7
 79
     5
170
     0
171
     0
290
     0
174
     0
 93
        1
 44
0.0
173
     0
291
     1
 45
0.0
1001
ACAD
1000
AcDbSavedByObjectVersion
1070
     0
  0
VISUALSTYLE
  5
35
102
{ACAD_XDICTIONARY
360
16C
102
}
102
{ACAD_REACTORS
330
29
102
}
330
29
100
AcDbVisualStyle
  2
Brighten
 70
    12
 71
     2
 72
     2
 73
     0
 90
        0
 40
-0.6
 41
-30.0
 62
     5
 63
     7
 74
     1
 91
        4
 64
     7
 65
   257
 75
     1
175
     1
 42
1.0
 92
        8
 66
     7
 43
1.0
 76
     1
 77
     6
 78
     2
 67
     7
 79
     5
170
     0
171
     0
290
     0
174
     0
 93
        1
 44
50.0
173
     0
291
     1
 45
0.0
1001
ACAD
1000
AcDbSavedByObjectVersion
1070
     0
  0
VISUALSTYLE
  5
39
102
{ACAD_XDICTIONARY
360
174
102
}
102
{ACAD_REACTORS
330
29
102
}
330
29
100
AcDbVisualStyle
  2
ColorChange
 70
    16
 71
     2
 72
     2
 73
     3
 90
        0
 40
-0.6
 41
-30.0
 62
     5
 63
     8
 74
     1
 91
        4
 64
     7
 65
   257
 75
     1
175
     1
 42
1.0
 92
        8
 66
     8
 43
1.0
 76
     1
 77
     6
 78
     2
 67
     7
 79
     5
170
     0
171
     0
290
     0
174
     0
 93
        1
 44
0.0
173
     0
291
     1
 45
0.0
1001
ACAD
1000
AcDbSavedByObjectVersion
1070
     0
  0
VISUALSTYLE
  5
32
102
{ACAD_XDICTIONARY
360
166
102
}
102
{ACAD_REACTORS
330
29
102
}
330
29
100
AcDbVisualStyle
  2
Conceptual
 70
     9
 71
     3
 72
     2
 73
     0
 90
        0
 40
-0.6
 41
-30.0
 62
     5
 63
     7
 74
     2
 91
        2
 64
     7
 65
   257
 75
     1
175
     1
 42
179.0
 92
        8
 66
     7
 43
1.0
 76
     1
 77
     6
 78
     2
 67
     7
 79
     3
170
     0
171
     0
290
     0
174
     0
 93
        1
 44
0.0
173
     0
291
     0
 45
0.0
1001
ACAD
1000
AcDbSavedByObjectVersion
1070
     0
  0
VISUALSTYLE
  5
34
102
{ACAD_XDICTIONARY
360
16A
102
}
102
{ACAD_REACTORS
330
29
102
}
330
29
100
AcDbVisualStyle
  2
Dim
 70
    11
 71
     2
 72
     2
 73
     0
 90
        0
 40
-0.6
 41
-30.0
 62
     5
 63
     7
 74
     1
 91
        4
 64
     7
 65
   257
 75
     1
175
     1
 42
1.0
 92
        8
 66
     7
 43
1.0
 76
     1
 77
     6
 78
     2
 67
     7
 79
     5
170
     0
171
     0
290
     0
174
     0
 93
        1
 44
-50.0
173
     0
291
     1
 45
0.0
1001
ACAD
1000
AcDbSavedByObjectVersion
1070
     0
  0
VISUALSTYLE
  5
41
102
{ACAD_XDICTIONARY
360
184
102
}
102
{ACAD_REACTORS
330
29
102
}
330
29
100
AcDbVisualStyle
  2
EdgeColorOff
 70
    22
 71
     2
 72
     2
 73
     0
 90
        0
 40
-0.6
 41
-30.0
 62
     5
 63
     7
 74
     1
 91
        4
 64
     7
 65
   257
 75
     1
175
     1
 42
1.0
 92
        8
 66
     7
 43
1.0
 76
     1
 77
     6
 78
     2
 67
     7
 79
     5
170
     0
171
     0
290
     0
174
     0
 93
        1
 44
0.0
173
     0
291
     1
 45
0.0
1001
ACAD
1000
AcDbSavedByObjectVersion
1070
     0
  0
VISUALSTYLE
  5
38
102
{ACAD_XDICTIONARY
360
172
102
}
102
{ACAD_REACTORS
330
29
102
}
330
29
100
AcDbVisualStyle
  2
Facepattern
 70
    15
 71
     2
 72
     2
 73
     0
 90
        0
 40
-0.6
 41
-30.0
 62
     5
 63
     7
 74
     1
 91
        4
 64
     7
 65
   257
 75
     1
175
     1
 42
1.0
 92
        8
 66
     7
 43
1.0
 76
     1
 77
     6
 78
     2
 67
     7
 79
     5
170
     0
171
     0
290
     0
174
     0
 93
        1
 44
0.0
173
     0
291
     1
 45
0.0
1001
ACAD
1000
AcDbSavedByObjectVersion
1070
     0
  0
VISUALSTYLE
  5
2A
102
{ACAD_XDICTIONARY
360
156
102
}
102
{ACAD_REACTORS
330
29
102
}
330
29
100
AcDbVisualStyle
  2
Flat
 70
     0
 71
     2
 72
     1
 73
     1
 90
        2
 40
-0.6
 41
30.0
 62
     5
 63
     7
 74
     0
 91
        0
 64
     7
 65
   257
 75
     1
175
     1
 42
1.0
 92
        8
 66
     7
 43
1.0
 76
     1
 77
     6
 78
     2
 67
     7
 79
     5
170
     0
171
     0
290
     0
174
     0
 93
       13
 44
0.0
173
     0
291
     1
 45
0.0
1001
ACAD
1000
AcDbSavedByObjectVersion
1070
     0
  0
VISUALSTYLE
  5
2B
102
{ACAD_XDICTIONARY
360
158
102
}
102
{ACAD_REACTORS
330
29
102
}
330
29
100
AcDbVisualStyle
  2
FlatWithEdges
 70
     1
 71
     2
 72
     1
 73
     1
 90
        2
 40
-0.6
 41
30.0
 62
     5
 63
     7
 74
     1
 91
        0
 64
     7
 65
   257
 75
     1
175
     1
 42
1.0
 92
        0
 66
   257
 43
1.0
 76
     1
 77
     6
 78
     2
 67
     7
 79
     5
170
     0
171
     0
290
     0
174
     0
 93
       13
 44
0.0
173
     0
291
     1
 45
0.0
1001
ACAD
1000
AcDbSavedByObjectVersion
1070
     0
  0
VISUALSTYLE
  5
2C
102
{ACAD_XDICTIONARY
360
15A
102
}
102
{ACAD_REACTORS
330
29
102
}
330
29
100
AcDbVisualStyle
  2
Gouraud
 70
     2
 71
     2
 72
     2
 73
     1
 90
        2
 40
-0.6
 41
30.0
 62
     5
 63
     7
 74
     0
 91
        0
 64
     7
 65
   257
 75
     1
175
     1
 42
1.0
 92
        0
 66
     7
 43
1.0
 76
     1
 77
     6
 78
     2
 67
     7
 79
     5
170
     0
171
     0
290
     0
174
     0
 93
       13
 44
0.0
173
     0
291
     1
 45
0.0
1001
ACAD
1000
AcDbSavedByObjectVersion
1070
     0
  0
VISUALSTYLE
  5
2D
102
{ACAD_XDICTIONARY
360
15C
102
}
102
{ACAD_REACTORS
330
29
102
}
330
29
100
AcDbVisualStyle
  2
GouraudWithEdges
 70
     3
 71
     2
 72
     2
 73
     1
 90
        2
 40
-0.6
 41
30.0
 62
     5
 63
     7
 74
     1
 91
        0
 64
     7
 65
   257
 75
     1
175
     1
 42
1.0
 92
        0
 66
   257
 43
1.0
 76
     1
 77
     6
 78
     2
 67
     7
 79
     5
170
     0
171
     0
290
     0
174
     0
 93
       13
 44
0.0
173
     0
291
     1
 45
0.0
1001
ACAD
1000
AcDbSavedByObjectVersion
1070
     0
  0
VISUALSTYLE
  5
31
102
{ACAD_XDICTIONARY
360
164
102
}
102
{ACAD_REACTORS
330
29
102
}
330
29
100
AcDbVisualStyle
  2
Hidden
 70
     6
 71
     1
 72
     2
 73
     2
 90
        0
 40
-0.6
 41
-30.0
 62
     5
 63
     7
 74
     2
 91
        2
 64
     7
 65
   257
 75
     2
175
     1
 42
40.0
 92
        0
 66
   257
 43
1.0
 76
     1
 77
     6
 78
     2
 67
     7
 79
     3
170
     0
171
     0
290
     0
174
     0
 93
        1
 44
0.0
173
     0
291
     0
 45
0.0
1001
ACAD
1000
AcDbSavedByObjectVersion
1070
     0
  0
VISUALSTYLE
  5
3F
102
{ACAD_XDICTIONARY
360
180
102
}
102
{ACAD_REACTORS
330
29
102
}
330
29
100
AcDbVisualStyle
  2
JitterOff
 70
    20
 71
     2
 72
     2
 73
     0
 90
        0
 40
-0.6
 41
-30.0
 62
     5
 63
     7
 74
     1
 91
        4
 64
     7
 65
   257
 75
     1
175
     1
 42
1.0
 92
       10
 66
     7
 43
1.0
 76
     1
 77
     6
 78
     2
 67
     7
 79
     5
170
     0
171
     0
290
     0
174
     0
 93
        1
 44
0.0
173
     0
291
     1
 45
0.0
1001
ACAD
1000
AcDbSavedByObjectVersion
1070
     0
  0
VISUALSTYLE
  5
37
102
{ACAD_XDICTIONARY
360
170
102
}
102
{ACAD_REACTORS
330
29
102
}
330
29
100
AcDbVisualStyle
  2
Linepattern
 70
    14
 71
     2
 72
     2
 73
     0
 90
        0
 40
-0.6
 41
-30.0
 62
     5
 63
     7
 74
     1
 91
        4
 64
     7
 65
   257
 75
     7
175
     7
 42
1.0
 92
        8
 66
     7
 43
1.0
 76
     1
 77
     6
 78
     2
 67
     7
 79
     5
170
     0
171
     0
290
     0
174
     0
 93
        1
 44
0.0
173
     0
291
     1
 45
0.0
1001
ACAD
1000
AcDbSavedByObjectVersion
1070
     0
  0
VISUALSTYLE
  5
40
102
{ACAD_XDICTIONARY
360
182
102
}
102
{ACAD_REACTORS
330
29
102
}
330
29
100
AcDbVisualStyle
  2
OverhangOff
 70
    21
 71
     2
 72
     2
 73
     0
 90
        0
 40
-0.6
 41
-30.0
 62
     5
 63
     7
 74
     1
 91
        4
 64
     7
 65
   257
 75
     1
175
     1
 42
1.0
 92
        9
 66
     7
 43
1.0
 76
     1
 77
     6
 78
     2
 67
     7
 79
     5
170
     0
171
     0
290
     0
174
     0
 93
        1
 44
0.0
173
     0
291
     1
 45
0.0
1001
ACAD
1000
AcDbSavedByObjectVersion
1070
     0
  0
VISUALSTYLE
  5
33
102
{ACAD_XDICTIONARY
360
168
102
}
102
{ACAD_REACTORS
330
29
102
}
330
29
100
AcDbVisualStyle
  2
Realistic
 70
     8
 71
     2
 72
     3
 73
     0
 90
        2
 40
-0.6
 41
30.0
 62
     5
 63
     7
 74
     0
 91
        0
 64
     7
 65
   257
 75
     1
175
     1
 42
1.0
 92
        8
 66
   257
 43
1.0
 76
     1
 77
     6
 78
     2
 67
     7
 79
     3
170
     0
171
     0
290
     0
174
     0
 93
       13
 44
0.0
173
     0
291
     0
 45
0.0
1001
ACAD
1000
AcDbSavedByObjectVersion
1070
     0
  0
VISUALSTYLE
  5
3E
102
{ACAD_XDICTIONARY
360
17E
102
}
102
{ACAD_REACTORS
330
29
102
}
330
29
100
AcDbVisualStyle
  2
Shaded
 70
    27
 71
     2
 72
     2
 73
     1
 90
        2
 40
-0.6
 41
30.0
 62
     5
 63
     7
 74
     0
 91
        4
 64
     7
 65
   257
 75
     1
175
     1
 42
1.0
 92
        8
 66
   257
 43
1.0
 76
     1
 77
     6
 78
     2
 67
     8
 79
     3
170
     0
171
     0
290
     0
174
     0
 93
        5
 44
0.0
173
     0
291
     0
 45
0.0
1001
ACAD
1000
AcDbSavedByObjectVersion
1070
     0
  0
VISUALSTYLE
  5
3D
102
{ACAD_XDICTIONARY
360
17C
102
}
102
{ACAD_REACTORS
330
29
102
}
330
29
100
AcDbVisualStyle
  2
Shaded with edges
 70
    26
 71
     2
 72
     2
 73
     1
 90
        2
 40
-0.6
 41
30.0
 62
     5
 63
     7
 74
     1
 91
       10
 64
     7
 65
   257
 75
     2
175
     1
 42
1.0
 92
        8
 66
   257
 43
1.0
 76
     1
 77
     6
 78
     2
 67
     7
 79
     3
170
     0
171
     0
290
     0
174
     0
 93
        5
 44
0.0
173
     0
291
     0
 45
0.0
1001
ACAD
1000
AcDbSavedByObjectVersion
1070
     0
  0
VISUALSTYLE
  5
3A
102
{ACAD_XDICTIONARY
360
176
102
}
102
{ACAD_REACTORS
330
29
102
}
330
29
100
AcDbVisualStyle
  2
Shades of Gray
 70
    23
 71
     2
 72
     2
 73
     3
 90
        0
 40
-0.6
 41
-30.0
 62
     5
 63
     7
 74
     2
 91
        2
 64
     7
 65
     7
 75
     1
175
     1
 42
40.0
 92
        8
 66
     7
 43
1.0
 76
     1
 77
     6
 78
     2
 67
     7
 79
     3
170
     0
171
     0
290
     0
174
     0
 93
        1
 44
0.0
173
     0
291
     0
 45
0.0
1001
ACAD
1000
AcDbSavedByObjectVersion
1070
     0
  0
VISUALSTYLE
  5
3B
102
{ACAD_XDICTIONARY
360
178
102
}
102
{ACAD_REACTORS
330
29
102
}
330
29
100
AcDbVisualStyle
  2
Sketchy
 70
    24
 71
     1
 72
     2
 73
     2
 90
        0
 40
-0.6
 41
-30.0
 62
     5
 63
     7
 74
     2
 91
        2
 64
     7
 65
     7
 75
     1
175
     1
 42
40.0
 92
       11
 66
     7
 43
1.0
 76
     1
 77
     6
 78
     2
 67
     7
 79
     6
170
     0
171
     0
290
     0
174
     0
 93
        1
 44
0.0
173
     0
291
     0
 45
0.0
1001
ACAD
1000
AcDbSavedByObjectVersion
1070
     0
  0
VISUALSTYLE
  5
36
102
{ACAD_XDICTIONARY
360
16E
102
}
102
{ACAD_REACTORS
330
29
102
}
330
29
100
AcDbVisualStyle
  2
Thicken
 70
    13
 71
     2
 72
     2
 73
     0
 90
        0
 40
-0.6
 41
-30.0
 62
     5
 63
     7
 74
     1
 91
        4
 64
     7
 65
   257
 75
     1
175
     1
 42
1.0
 92
       12
 66
     7
 43
1.0
 76
     1
 77
     6
 78
     2
 67
     7
 79
     5
170
     0
171
     0
290
     0
174
     0
 93
        1
 44
0.0
173
     0
291
     1
 45
0.0
1001
ACAD
1000
AcDbSavedByObjectVersion
1070
     0
  0
VISUALSTYLE
  5
30
102
{ACAD_XDICTIONARY
360
162
102
}
102
{ACAD_REACTORS
330
29
102
}
330
29
100
AcDbVisualStyle
  2
Wireframe
 70
     5
 71
     0
 72
     2
 73
     0
 90
        0
 40
-0.6
 41
-30.0
 62
     5
 63
     7
 74
     1
 91
        4
 64
     7
 65
   257
 75
     1
175
     1
 42
1.0
 92
        0
 66
   257
 43
1.0
 76
     1
 77
     6
 78
     2
 67
     7
 79
     3
170
     0
171
     0
290
     0
174
     0
 93
        1
 44
0.0
173
     0
291
     0
 45
0.0
1001
ACAD
1000
AcDbSavedByObjectVersion
1070
     0
  0
VISUALSTYLE
  5
3C
102
{ACAD_XDICTIONARY
360
17A
102
}
102
{ACAD_REACTORS
330
29
102
}
330
29
100
AcDbVisualStyle
  2
X-Ray
 70
    25
 71
     2
 72
     2
 73
     1
 90
        1
 40
0.5
 41
-30.0
 62
     5
 63
     7
 74
     1
 91
        0
 64
     7
 65
   257
 75
     1
175
     1
 42
1.0
 92
        8
 66
     7
 43
1.0
 76
     1
 77
     6
 78
     2
 67
     7
 79
     3
170
     0
171
     0
290
     0
174
     0
 93
       13
 44
0.0
173
     0
291
     0
 45
0.0
1001
ACAD
1000
AcDbSavedByObjectVersion
1070
     0
  0
DICTIONARYVAR
  5
7B
102
{ACAD_REACTORS
330
77
102
}
330
77
100
DictionaryVariables
280
     0
  1
1:1
  0
DICTIONARYVAR
  5
79
102
{ACAD_REACTORS
330
77
102
}
330
77
100
DictionaryVariables
280
     0
  1
STANDARD
  0
DICTIONARYVAR
  5
78
102
{ACAD_REACTORS
330
77
102
}
330
77
100
DictionaryVariables
280
     0
  1
STANDARD
  0
DICTIONARYVAR
  5
82
102
{ACAD_REACTORS
330
77
102
}
330
77
100
DictionaryVariables
280
     0
  1
2
  0
DICTIONARYVAR
  5
81
102
{ACAD_REACTORS
330
77
102
}
330
77
100
DictionaryVariables
280
     0
  1
1
  0
DICTIONARYVAR
  5
80
102
{ACAD_REACTORS
330
77
102
}
330
77
100
DictionaryVariables
280
     0
  1
0
  0
DICTIONARYVAR
  5
7D
102
{ACAD_REACTORS
330
77
102
}
330
77
100
DictionaryVariables
280
     0
  1
0
  0
DICTIONARYVAR
  5
7E
102
{ACAD_REACTORS
330
77
102
}
330
77
100
DictionaryVariables
280
     0
  1
0
  0
DICTIONARYVAR
  5
7C
102
{ACAD_REACTORS
330
77
102
}
330
77
100
DictionaryVariables
280
     0
  1
2
  0
DICTIONARYVAR
  5
7A
102
{ACAD_REACTORS
330
77
102
}
330
77
100
DictionaryVariables
280
     0
  1
1
  0
DICTIONARYVAR
  5
7F
102
{ACAD_REACTORS
330
77
102
}
330
77
100
DictionaryVariables
280
     0
  1
127
  0
DICTIONARYVAR
  5
83
102
{ACAD_REACTORS
330
77
102
}
330
77
100
DictionaryVariables
280
     0
  1
2
  0
XRECORD
  5
149
102
{ACAD_REACTORS
330
144
102
}
330
144
100
AcDbXrecord
280
     1
  1
BUILDING_ID
  1
templateTecnicheParametriche
  1
FLOOR_ID
  1
78818
  0
XRECORD
  5
148
102
{ACAD_REACTORS
330
144
102
}
330
144
100
AcDbXrecord
280
     1
  1
-2000011
  1
Walls
  1
-2000220
  1
Grids
  1
-2000535
  1
Elevations
  1
-2001330
  1
Structural Columns
  1
-2006040
  1
Grid Heads
  0
XRECORD
  5
145
102
{ACAD_REACTORS
330
144
102
}
330
144
100
AcDbXrecord
280
     1
  1
3ab4543b-da77-42e4-8964-1ba5465a77da
  0
XRECORD
  5
147
102
{ACAD_REACTORS
330
144
102
}
330
144
100
AcDbXrecord
280
     1
  1
29121
  1
Pilastro in cemento - Rettangolare : 30x30 cm
  1
910
  1
Elevation : Prospetto
  1
952
  1
Basic Wall : Generico - 30 cm : Generico - 30 cm
  1
968
  1
Grid : Simbolo circolare 6,5 mm
  0
DICTIONARY
  5
188
330
6B
100
AcDbDictionary
280
     1
281
     1
  3
ACAD_XREC_ROUNDTRIP
360
189
  0
DICTIONARY
  5
18C
330
73
100
AcDbDictionary
280
     1
281
     1
  3
ACAD_XREC_ROUNDTRIP
360
18D
  0
DICTIONARY
  5
18A
330
6F
100
AcDbDictionary
280
     1
281
     1
  3
ACAD_XREC_ROUNDTRIP
360
18B
  0
DICTIONARY
  5
1A
330
19
100
AcDbDictionary
280
     1
281
     1
  3
ACAD_XREC_ROUNDTRIP
360
154
  3
BUMPTILE
360
1C
  3
DIFFUSETILE
360
1B
  3
OPACITYTILE
360
1F
  3
REFLECTIONTILE
360
1E
  3
REFRACTIONTILE
360
20
  3
SPECULARTILE
360
1D
  0
DICTIONARY
  5
12
330
11
100
AcDbDictionary
280
     1
281
     1
  3
ACAD_XREC_ROUNDTRIP
360
153
  3
BUMPTILE
360
14
  3
DIFFUSETILE
360
13
  3
OPACITYTILE
360
17
  3
REFLECTIONTILE
360
16
  3
REFRACTIONTILE
360
18
  3
SPECULARTILE
360
15
  0
DICTIONARY
  5
22
330
21
100
AcDbDictionary
280
     1
281
     1
  3
ACAD_XREC_ROUNDTRIP
360
155
  3
BUMPTILE
360
24
  3
DIFFUSETILE
360
23
  3
OPACITYTILE
360
27
  3
REFLECTIONTILE
360
26
  3
REFRACTIONTILE
360
28
  3
SPECULARTILE
360
25
  0
DICTIONARY
  5
150
330
67
100
AcDbDictionary
280
     1
281
     1
  3
ACAD_XREC_ROUNDTRIP
360
151
  0
DICTIONARY
  5
14E
330
65
100
AcDbDictionary
280
     1
281
     1
  3
ACAD_ROUNDTRIP_2008_TABLESTYLE_CELLSTYLEMAP
360
14F
  3
ACAD_XREC_ROUNDTRIP
360
186
  0
DICTIONARY
  5
160
330
2F
100
AcDbDictionary
280
     1
281
     1
  3
ACAD_XREC_ROUNDTRIP
360
161
  0
DICTIONARY
  5
15E
330
2E
100
AcDbDictionary
280
     1
281
     1
  3
ACAD_XREC_ROUNDTRIP
360
15F
  0
DICTIONARY
  5
16C
330
35
100
AcDbDictionary
280
     1
281
     1
  3
ACAD_XREC_ROUNDTRIP
360
16D
  0
DICTIONARY
  5
174
330
39
100
AcDbDictionary
280
     1
281
     1
  3
ACAD_XREC_ROUNDTRIP
360
175
  0
DICTIONARY
  5
166
330
32
100
AcDbDictionary
280
     1
281
     1
  3
ACAD_XREC_ROUNDTRIP
360
167
  0
DICTIONARY
  5
16A
330
34
100
AcDbDictionary
280
     1
281
     1
  3
ACAD_XREC_ROUNDTRIP
360
16B
  0
DICTIONARY
  5
184
330
41
100
AcDbDictionary
280
     1
281
     1
  3
ACAD_XREC_ROUNDTRIP
360
185
  0
DICTIONARY
  5
172
330
38
100
AcDbDictionary
280
     1
281
     1
  3
ACAD_XREC_ROUNDTRIP
360
173
  0
DICTIONARY
  5
156
330
2A
100
AcDbDictionary
280
     1
281
     1
  3
ACAD_XREC_ROUNDTRIP
360
157
  0
DICTIONARY
  5
158
330
2B
100
AcDbDictionary
280
     1
281
     1
  3
ACAD_XREC_ROUNDTRIP
360
159
  0
DICTIONARY
  5
15A
330
2C
100
AcDbDictionary
280
     1
281
     1
  3
ACAD_XREC_ROUNDTRIP
360
15B
  0
DICTIONARY
  5
15C
330
2D
100
AcDbDictionary
280
     1
281
     1
  3
ACAD_XREC_ROUNDTRIP
360
15D
  0
DICTIONARY
  5
164
330
31
100
AcDbDictionary
280
     1
281
     1
  3
ACAD_XREC_ROUNDTRIP
360
165
  0
DICTIONARY
  5
180
330
3F
100
AcDbDictionary
280
     1
281
     1
  3
ACAD_XREC_ROUNDTRIP
360
181
  0
DICTIONARY
  5
170
330
37
100
AcDbDictionary
280
     1
281
     1
  3
ACAD_XREC_ROUNDTRIP
360
171
  0
DICTIONARY
  5
182
330
40
100
AcDbDictionary
280
     1
281
     1
  3
ACAD_XREC_ROUNDTRIP
360
183
  0
DICTIONARY
  5
168
330
33
100
AcDbDictionary
280
     1
281
     1
  3
ACAD_XREC_ROUNDTRIP
360
169
  0
DICTIONARY
  5
17E
330
3E
100
AcDbDictionary
280
     1
281
     1
  3
ACAD_XREC_ROUNDTRIP
360
17F
  0
DICTIONARY
  5
17C
330
3D
100
AcDbDictionary
280
     1
281
     1
  3
ACAD_XREC_ROUNDTRIP
360
17D
  0
DICTIONARY
  5
176
330
3A
100
AcDbDictionary
280
     1
281
     1
  3
ACAD_XREC_ROUNDTRIP
360
177
  0
DICTIONARY
  5
178
330
3B
100
AcDbDictionary
280
     1
281
     1
  3
ACAD_XREC_ROUNDTRIP
360
179
  0
DICTIONARY
  5
16E
330
36
100
AcDbDictionary
280
     1
281
     1
  3
ACAD_XREC_ROUNDTRIP
360
16F
  0
DICTIONARY
  5
162
330
30
100
AcDbDictionary
280
     1
281
     1
  3
ACAD_XREC_ROUNDTRIP
360
163
  0
DICTIONARY
  5
17A
330
3C
100
AcDbDictionary
280
     1
281
     1
  3
ACAD_XREC_ROUNDTRIP
360
17B
  0
XRECORD
  5
189
102
{ACAD_REACTORS
330
188
102
}
330
188
100
AcDbXrecord
280
     1
102
SHADEPLOT
 70
     0
102
SHADEPLOTRESLEVEL
 70
     2
102
SHADEPLOTCUSTOMDPI
 70
   300
  0
XRECORD
  5
18D
102
{ACAD_REACTORS
330
18C
102
}
330
18C
100
AcDbXrecord
280
     1
102
SHADEPLOT
 70
     0
102
SHADEPLOTRESLEVEL
 70
     2
102
SHADEPLOTCUSTOMDPI
 70
   300
  0
XRECORD
  5
18B
102
{ACAD_REACTORS
330
18A
102
}
330
18A
100
AcDbXrecord
280
     1
102
SHADEPLOT
 70
     0
102
SHADEPLOTRESLEVEL
 70
     2
102
SHADEPLOTCUSTOMDPI
 70
   300
  0
XRECORD
  5
154
102
{ACAD_REACTORS
330
1A
102
}
330
1A
100
AcDbXrecord
280
     1
102
MATERIAL
148
0.0
149
0.0
149
0.0
 93
        0
 94
      127
282
     0
 72
     0
 77
     0
171
     0
175
     0
179
     0
273
     0
  0
XRECORD
  5
1C
102
{ACAD_REACTORS
330
1A
102
}
330
1A
100
AcDbXrecord
280
     1
270
     1
271
     1
  0
XRECORD
  5
1B
102
{ACAD_REACTORS
330
1A
102
}
330
1A
100
AcDbXrecord
280
     1
270
     1
271
     1
  0
XRECORD
  5
1F
102
{ACAD_REACTORS
330
1A
102
}
330
1A
100
AcDbXrecord
280
     1
270
     1
271
     1
  0
XRECORD
  5
1E
102
{ACAD_REACTORS
330
1A
102
}
330
1A
100
AcDbXrecord
280
     1
270
     1
271
     1
  0
XRECORD
  5
20
102
{ACAD_REACTORS
330
1A
102
}
330
1A
100
AcDbXrecord
280
     1
270
     1
271
     1
  0
XRECORD
  5
1D
102
{ACAD_REACTORS
330
1A
102
}
330
1A
100
AcDbXrecord
280
     1
270
     1
271
     1
  0
XRECORD
  5
153
102
{ACAD_REACTORS
330
12
102
}
330
12
100
AcDbXrecord
280
     1
102
MATERIAL
148
0.0
149
0.0
149
0.0
 93
        0
 94
      127
282
     0
 72
     0
 77
     0
171
     0
175
     0
179
     0
273
     0
  0
XRECORD
  5
14
102
{ACAD_REACTORS
330
12
102
}
330
12
100
AcDbXrecord
280
     1
270
     1
271
     1
  0
XRECORD
  5
13
102
{ACAD_REACTORS
330
12
102
}
330
12
100
AcDbXrecord
280
     1
270
     1
271
     1
  0
XRECORD
  5
17
102
{ACAD_REACTORS
330
12
102
}
330
12
100
AcDbXrecord
280
     1
270
     1
271
     1
  0
XRECORD
  5
16
102
{ACAD_REACTORS
330
12
102
}
330
12
100
AcDbXrecord
280
     1
270
     1
271
     1
  0
XRECORD
  5
18
102
{ACAD_REACTORS
330
12
102
}
330
12
100
AcDbXrecord
280
     1
270
     1
271
     1
  0
XRECORD
  5
15
102
{ACAD_REACTORS
330
12
102
}
330
12
100
AcDbXrecord
280
     1
270
     1
271
     1
  0
XRECORD
  5
155
102
{ACAD_REACTORS
330
22
102
}
330
22
100
AcDbXrecord
280
     1
102
MATERIAL
148
0.0
149
0.0
149
0.0
 93
        0
 94
      127
282
     0
 72
     0
 77
     0
171
     0
175
     0
179
     0
273
     0
  0
XRECORD
  5
24
102
{ACAD_REACTORS
330
22
102
}
330
22
100
AcDbXrecord
280
     1
270
     1
271
     1
  0
XRECORD
  5
23
102
{ACAD_REACTORS
330
22
102
}
330
22
100
AcDbXrecord
280
     1
270
     1
271
     1
  0
XRECORD
  5
27
102
{ACAD_REACTORS
330
22
102
}
330
22
100
AcDbXrecord
280
     1
270
     1
271
     1
  0
XRECORD
  5
26
102
{ACAD_REACTORS
330
22
102
}
330
22
100
AcDbXrecord
280
     1
270
     1
271
     1
  0
XRECORD
  5
28
102
{ACAD_REACTORS
330
22
102
}
330
22
100
AcDbXrecord
280
     1
270
     1
271
     1
  0
XRECORD
  5
25
102
{ACAD_REACTORS
330
22
102
}
330
22
100
AcDbXrecord
280
     1
270
     1
271
     1
  0
XRECORD
  5
151
102
{ACAD_REACTORS
330
150
102
}
330
150
100
AcDbXrecord
280
     1
102
ACAD_ROUNDTRIP_2012_MLEADER_STYLE
298
     1
  0
CELLSTYLEMAP
  5
14F
102
{ACAD_REACTORS
330
14E
102
}
330
14E
100
AcDbCellStyleMap
 90
        3
300
CELLSTYLE
  1
TABLEFORMAT_BEGIN
 90
        5
170
     1
 91
        0
 92
    32768
 62
   257
 93
        1
300
CONTENTFORMAT
  1
CONTENTFORMAT_BEGIN
 90
        0
 91
        0
 92
      512
 93
        0
300

 40
0.0
140
1.0
 94
        5
 62
     0
340
55
144
0.25
309
CONTENTFORMAT_END
171
     0
 94
        0
309
TABLEFORMAT_END
  1
CELLSTYLE_BEGIN
 90
        1
 91
        1
300
_TITLE
309
CELLSTYLE_END
300
CELLSTYLE
  1
TABLEFORMAT_BEGIN
 90
        5
170
     1
 91
        0
 92
        0
 62
   257
 93
        1
300
CONTENTFORMAT
  1
CONTENTFORMAT_BEGIN
 90
        0
 91
        0
 92
      512
 93
        0
300

 40
0.0
140
1.0
 94
        5
 62
     0
340
55
144
0.18
309
CONTENTFORMAT_END
171
     0
 94
        0
309
TABLEFORMAT_END
  1
CELLSTYLE_BEGIN
 90
        2
 91
        1
300
_HEADER
309
CELLSTYLE_END
300
CELLSTYLE
  1
TABLEFORMAT_BEGIN
 90
        5
170
     1
 91
        0
 92
        0
 62
   257
 93
        1
300
CONTENTFORMAT
  1
CONTENTFORMAT_BEGIN
 90
        0
 91
        0
 92
      512
 93
        0
300

 40
0.0
140
1.0
 94
        2
 62
     0
340
55
144
0.18
309
CONTENTFORMAT_END
171
     0
 94
        0
309
TABLEFORMAT_END
  1
CELLSTYLE_BEGIN
 90
        3
 91
        2
300
_DATA
309
CELLSTYLE_END
  0
XRECORD
  5
186
102
{ACAD_REACTORS
330
14E
102
}
330
14E
100
AcDbXrecord
280
     1
102
ACAD_ROUNDTRIP_PRE2007_TABLESTYLE
 90
      512
 91
        0
  1

 92
      512
 93
        0
  2

 94
      512
 95
        0
  3

  0
XRECORD
  5
161
102
{ACAD_REACTORS
330
160
102
}
330
160
100
AcDbXrecord
280
     1
102
RTVSPropertyOp0
 70
     1
102
RTVSPropertyOp1
 70
     1
102
RTVSPropertyOp2
 70
     1
102
RTVSPropertyOp3
 70
     1
102
RTVSPropertyOp4
 70
     1
102
RTVSPropertyOp5
 70
     1
102
RTVSPropertyOp6
 70
     1
102
RTVSPropertyOp7
 70
     1
102
RTVSPropertyOp8
 70
     1
102
RTVSPropertyOp9
 70
     1
102
RTVSPropertyOp10
 70
     1
102
RTVSPropertyOp11
 70
     1
102
RTVSPropertyOp12
 70
     1
102
RTVSPropertyOp13
 70
     1
102
RTVSPropertyOp14
 70
     1
102
RTVSPropertyOp15
 70
     1
102
RTVSPropertyOp16
 70
     1
102
RTVSPropertyOp17
 70
     1
102
RTVSPropertyOp18
 70
     1
102
RTVSPropertyOp19
 70
     1
102
RTVSPropertyOp20
 70
     1
102
RTVSPropertyOp21
 70
     1
102
RTVSPropertyOp22
 70
     1
102
RTVSPropertyOp23
 70
     1
102
RTVSPropertyOp24
 70
     1
102
RTVSPropertyOp25
 70
     1
102
RTVSPropertyOp26
 70
     1
102
RTVSPropertyOp27
 70
     1
102
RTVSPropertyOp28
 70
     1
102
RTVSPropertyOp29
 70
     1
102
RTVSPropertyOp30
 70
     1
102
RTVSPropertyOp31
 70
     1
102
RTVSPropertyOp32
 70
     1
  0
XRECORD
  5
15F
102
{ACAD_REACTORS
330
15E
102
}
330
15E
100
AcDbXrecord
280
     1
102
RTVSPropertyOp0
 70
     1
102
RTVSPropertyOp1
 70
     1
102
RTVSPropertyOp2
 70
     1
102
RTVSPropertyOp3
 70
     1
102
RTVSPropertyOp4
 70
     1
102
RTVSPropertyOp5
 70
     1
102
RTVSPropertyOp6
 70
     1
102
RTVSPropertyOp7
 70
     1
102
RTVSPropertyOp8
 70
     1
102
RTVSPropertyOp9
 70
     1
102
RTVSPropertyOp10
 70
     1
102
RTVSPropertyOp11
 70
     1
102
RTVSPropertyOp12
 70
     1
102
RTVSPropertyOp13
 70
     1
102
RTVSPropertyOp14
 70
     1
102
RTVSPropertyOp15
 70
     1
102
RTVSPropertyOp16
 70
     1
102
RTVSPropertyOp17
 70
     1
102
RTVSPropertyOp18
 70
     1
102
RTVSPropertyOp19
 70
     1
102
RTVSPropertyOp20
 70
     1
102
RTVSPropertyOp21
 70
     1
102
RTVSPropertyOp22
 70
     1
102
RTVSPropertyOp23
 70
     1
102
RTVSPropertyOp24
 70
     1
102
RTVSPropertyOp25
 70
     1
102
RTVSPropertyOp26
 70
     1
102
RTVSPropertyOp27
 70
     1
102
RTVSPropertyOp28
 70
     1
102
RTVSPropertyOp29
 70
     1
102
RTVSPropertyOp30
 70
     1
102
RTVSPropertyOp31
 70
     1
102
RTVSPropertyOp32
 70
     1
  0
XRECORD
  5
16D
102
{ACAD_REACTORS
330
16C
102
}
330
16C
100
AcDbXrecord
280
     1
102
RTVSPropertyOp0
 70
     1
102
RTVSPropertyOp1
 70
     1
102
RTVSPropertyOp2
 70
     1
102
RTVSPropertyOp3
 70
     1
102
RTVSPropertyOp4
 70
     1
102
RTVSPropertyOp5
 70
     1
102
RTVSPropertyOp6
 70
     1
102
RTVSPropertyOp7
 70
     1
102
RTVSPropertyOp8
 70
     1
102
RTVSPropertyOp9
 70
     1
102
RTVSPropertyOp10
 70
     1
102
RTVSPropertyOp11
 70
     1
102
RTVSPropertyOp12
 70
     1
102
RTVSPropertyOp13
 70
     1
102
RTVSPropertyOp14
 70
     1
102
RTVSPropertyOp15
 70
     1
102
RTVSPropertyOp16
 70
     1
102
RTVSPropertyOp17
 70
     1
102
RTVSPropertyOp18
 70
     1
102
RTVSPropertyOp19
 70
     1
102
RTVSPropertyOp20
 70
     1
102
RTVSPropertyOp21
 70
     1
102
RTVSPropertyOp22
 70
     1
102
RTVSPropertyOp23
 70
     1
102
RTVSPropertyOp24
 70
     1
102
RTVSPropertyOp25
 70
     1
102
RTVSPropertyOp26
 70
     1
102
RTVSPropertyOp27
 70
     1
102
RTVSPropertyOp28
 70
     1
102
RTVSPropertyOp29
 70
     1
102
RTVSPropertyOp30
 70
     1
102
RTVSPropertyOp31
 70
     1
102
RTVSPropertyOp32
 70
     1
  0
XRECORD
  5
175
102
{ACAD_REACTORS
330
174
102
}
330
174
100
AcDbXrecord
280
     1
102
RTVSPropertyOp0
 70
     1
102
RTVSPropertyOp1
 70
     1
102
RTVSPropertyOp2
 70
     1
102
RTVSPropertyOp3
 70
     1
102
RTVSPropertyOp4
 70
     1
102
RTVSPropertyOp5
 70
     1
102
RTVSPropertyOp6
 70
     1
102
RTVSPropertyOp7
 70
     1
102
RTVSPropertyOp8
 70
     1
102
RTVSPropertyOp9
 70
     1
102
RTVSPropertyOp10
 70
     1
102
RTVSPropertyOp11
 70
     1
102
RTVSPropertyOp12
 70
     1
102
RTVSPropertyOp13
 70
     1
102
RTVSPropertyOp14
 70
     1
102
RTVSPropertyOp15
 70
     1
102
RTVSPropertyOp16
 70
     1
102
RTVSPropertyOp17
 70
     1
102
RTVSPropertyOp18
 70
     1
102
RTVSPropertyOp19
 70
     1
102
RTVSPropertyOp20
 70
     1
102
RTVSPropertyOp21
 70
     1
102
RTVSPropertyOp22
 70
     1
102
RTVSPropertyOp23
 70
     1
102
RTVSPropertyOp24
 70
     1
102
RTVSPropertyOp25
 70
     1
102
RTVSPropertyOp26
 70
     1
102
RTVSPropertyOp27
 70
     1
102
RTVSPropertyOp28
 70
     1
102
RTVSPropertyOp29
 70
     1
102
RTVSPropertyOp30
 70
     1
102
RTVSPropertyOp31
 70
     1
102
RTVSPropertyOp32
 70
     1
  0
XRECORD
  5
167
102
{ACAD_REACTORS
330
166
102
}
330
166
100
AcDbXrecord
280
     1
102
RTVSPropertyOp0
 70
     1
102
RTVSPropertyOp1
 70
     1
102
RTVSPropertyOp2
 70
     1
102
RTVSPropertyOp3
 70
     1
102
RTVSPropertyOp4
 70
     1
102
RTVSPropertyOp5
 70
     1
102
RTVSPropertyOp6
 70
     1
102
RTVSPropertyOp7
 70
     1
102
RTVSPropertyOp8
 70
     1
102
RTVSPropertyOp9
 70
     1
102
RTVSPropertyOp10
 70
     1
102
RTVSPropertyOp11
 70
     1
102
RTVSPropertyOp12
 70
     1
102
RTVSPropertyOp13
 70
     1
102
RTVSPropertyOp14
 70
     1
102
RTVSPropertyOp15
 70
     1
102
RTVSPropertyOp16
 70
     1
102
RTVSPropertyOp17
 70
     1
102
RTVSPropertyOp18
 70
     1
102
RTVSPropertyOp19
 70
     1
102
RTVSPropertyOp20
 70
     1
102
RTVSPropertyOp21
 70
     1
102
RTVSPropertyOp22
 70
     1
102
RTVSPropertyOp23
 70
     1
102
RTVSPropertyOp24
 70
     1
102
RTVSPropertyOp25
 70
     1
102
RTVSPropertyOp26
 70
     1
102
RTVSPropertyOp27
 70
     1
102
RTVSPropertyOp28
 70
     1
102
RTVSPropertyOp29
 70
     1
102
RTVSPropertyOp30
 70
     1
102
RTVSPropertyOp31
 70
     1
102
RTVSPropertyOp32
 70
     1
  0
XRECORD
  5
16B
102
{ACAD_REACTORS
330
16A
102
}
330
16A
100
AcDbXrecord
280
     1
102
RTVSPropertyOp0
 70
     1
102
RTVSPropertyOp1
 70
     1
102
RTVSPropertyOp2
 70
     1
102
RTVSPropertyOp3
 70
     1
102
RTVSPropertyOp4
 70
     1
102
RTVSPropertyOp5
 70
     1
102
RTVSPropertyOp6
 70
     1
102
RTVSPropertyOp7
 70
     1
102
RTVSPropertyOp8
 70
     1
102
RTVSPropertyOp9
 70
     1
102
RTVSPropertyOp10
 70
     1
102
RTVSPropertyOp11
 70
     1
102
RTVSPropertyOp12
 70
     1
102
RTVSPropertyOp13
 70
     1
102
RTVSPropertyOp14
 70
     1
102
RTVSPropertyOp15
 70
     1
102
RTVSPropertyOp16
 70
     1
102
RTVSPropertyOp17
 70
     1
102
RTVSPropertyOp18
 70
     1
102
RTVSPropertyOp19
 70
     1
102
RTVSPropertyOp20
 70
     1
102
RTVSPropertyOp21
 70
     1
102
RTVSPropertyOp22
 70
     1
102
RTVSPropertyOp23
 70
     1
102
RTVSPropertyOp24
 70
     1
102
RTVSPropertyOp25
 70
     1
102
RTVSPropertyOp26
 70
     1
102
RTVSPropertyOp27
 70
     1
102
RTVSPropertyOp28
 70
     1
102
RTVSPropertyOp29
 70
     1
102
RTVSPropertyOp30
 70
     1
102
RTVSPropertyOp31
 70
     1
102
RTVSPropertyOp32
 70
     1
  0
XRECORD
  5
185
102
{ACAD_REACTORS
330
184
102
}
330
184
100
AcDbXrecord
280
     1
102
RTVSPropertyOp0
 70
     0
102
RTVSPropertyOp1
 70
     0
102
RTVSPropertyOp2
 70
     0
102
RTVSPropertyOp3
 70
     0
102
RTVSPropertyOp4
 70
     0
102
RTVSPropertyOp5
 70
     0
102
RTVSPropertyOp6
 70
     0
102
RTVSPropertyOp7
 70
     0
102
RTVSPropertyOp8
 70
     0
102
RTVSPropertyOp9
 70
     0
102
RTVSPropertyOp10
 70
     0
102
RTVSPropertyOp11
 70
     0
102
RTVSPropertyOp12
 70
     0
102
RTVSPropertyOp13
 70
     0
102
RTVSPropertyOp14
 70
     2
102
RTVSPropertyOp15
 70
     0
102
RTVSPropertyOp16
 70
     0
102
RTVSPropertyOp17
 70
     0
102
RTVSPropertyOp18
 70
     0
102
RTVSPropertyOp19
 70
     0
102
RTVSPropertyOp20
 70
     0
102
RTVSPropertyOp21
 70
     0
102
RTVSPropertyOp22
 70
     0
102
RTVSPropertyOp23
 70
     0
102
RTVSPropertyOp24
 70
     0
102
RTVSPropertyOp25
 70
     0
102
RTVSPropertyOp26
 70
     0
102
RTVSPropertyOp27
 70
     0
102
RTVSPropertyOp28
 70
     0
102
RTVSPropertyOp29
 70
     0
102
RTVSPropertyOp30
 70
     0
102
RTVSPropertyOp31
 70
     0
102
RTVSPropertyOp32
 70
     0
  0
XRECORD
  5
173
102
{ACAD_REACTORS
330
172
102
}
330
172
100
AcDbXrecord
280
     1
102
RTVSPropertyOp0
 70
     1
102
RTVSPropertyOp1
 70
     1
102
RTVSPropertyOp2
 70
     1
102
RTVSPropertyOp3
 70
     1
102
RTVSPropertyOp4
 70
     1
102
RTVSPropertyOp5
 70
     1
102
RTVSPropertyOp6
 70
     1
102
RTVSPropertyOp7
 70
     1
102
RTVSPropertyOp8
 70
     1
102
RTVSPropertyOp9
 70
     1
102
RTVSPropertyOp10
 70
     1
102
RTVSPropertyOp11
 70
     1
102
RTVSPropertyOp12
 70
     1
102
RTVSPropertyOp13
 70
     1
102
RTVSPropertyOp14
 70
     1
102
RTVSPropertyOp15
 70
     1
102
RTVSPropertyOp16
 70
     1
102
RTVSPropertyOp17
 70
     1
102
RTVSPropertyOp18
 70
     1
102
RTVSPropertyOp19
 70
     1
102
RTVSPropertyOp20
 70
     1
102
RTVSPropertyOp21
 70
     1
102
RTVSPropertyOp22
 70
     1
102
RTVSPropertyOp23
 70
     1
102
RTVSPropertyOp24
 70
     1
102
RTVSPropertyOp25
 70
     1
102
RTVSPropertyOp26
 70
     1
102
RTVSPropertyOp27
 70
     1
102
RTVSPropertyOp28
 70
     1
102
RTVSPropertyOp29
 70
     1
102
RTVSPropertyOp30
 70
     1
102
RTVSPropertyOp31
 70
     1
102
RTVSPropertyOp32
 70
     1
  0
XRECORD
  5
157
102
{ACAD_REACTORS
330
156
102
}
330
156
100
AcDbXrecord
280
     1
102
RTVSPropertyOp0
 70
     1
102
RTVSPropertyOp1
 70
     1
102
RTVSPropertyOp2
 70
     1
102
RTVSPropertyOp3
 70
     1
102
RTVSPropertyOp4
 70
     1
102
RTVSPropertyOp5
 70
     1
102
RTVSPropertyOp6
 70
     1
102
RTVSPropertyOp7
 70
     1
102
RTVSPropertyOp8
 70
     1
102
RTVSPropertyOp9
 70
     1
102
RTVSPropertyOp10
 70
     1
102
RTVSPropertyOp11
 70
     1
102
RTVSPropertyOp12
 70
     1
102
RTVSPropertyOp13
 70
     1
102
RTVSPropertyOp14
 70
     1
102
RTVSPropertyOp15
 70
     1
102
RTVSPropertyOp16
 70
     1
102
RTVSPropertyOp17
 70
     1
102
RTVSPropertyOp18
 70
     1
102
RTVSPropertyOp19
 70
     1
102
RTVSPropertyOp20
 70
     1
102
RTVSPropertyOp21
 70
     1
102
RTVSPropertyOp22
 70
     1
102
RTVSPropertyOp23
 70
     1
102
RTVSPropertyOp24
 70
     1
102
RTVSPropertyOp25
 70
     1
102
RTVSPropertyOp26
 70
     1
102
RTVSPropertyOp27
 70
     1
102
RTVSPropertyOp28
 70
     1
102
RTVSPropertyOp29
 70
     1
102
RTVSPropertyOp30
 70
     1
102
RTVSPropertyOp31
 70
     1
102
RTVSPropertyOp32
 70
     1
  0
XRECORD
  5
159
102
{ACAD_REACTORS
330
158
102
}
330
158
100
AcDbXrecord
280
     1
102
RTVSPropertyOp0
 70
     1
102
RTVSPropertyOp1
 70
     1
102
RTVSPropertyOp2
 70
     1
102
RTVSPropertyOp3
 70
     1
102
RTVSPropertyOp4
 70
     1
102
RTVSPropertyOp5
 70
     1
102
RTVSPropertyOp6
 70
     1
102
RTVSPropertyOp7
 70
     1
102
RTVSPropertyOp8
 70
     1
102
RTVSPropertyOp9
 70
     1
102
RTVSPropertyOp10
 70
     1
102
RTVSPropertyOp11
 70
     1
102
RTVSPropertyOp12
 70
     1
102
RTVSPropertyOp13
 70
     1
102
RTVSPropertyOp14
 70
     1
102
RTVSPropertyOp15
 70
     1
102
RTVSPropertyOp16
 70
     1
102
RTVSPropertyOp17
 70
     1
102
RTVSPropertyOp18
 70
     1
102
RTVSPropertyOp19
 70
     1
102
RTVSPropertyOp20
 70
     1
102
RTVSPropertyOp21
 70
     1
102
RTVSPropertyOp22
 70
     1
102
RTVSPropertyOp23
 70
     1
102
RTVSPropertyOp24
 70
     1
102
RTVSPropertyOp25
 70
     1
102
RTVSPropertyOp26
 70
     1
102
RTVSPropertyOp27
 70
     1
102
RTVSPropertyOp28
 70
     1
102
RTVSPropertyOp29
 70
     1
102
RTVSPropertyOp30
 70
     1
102
RTVSPropertyOp31
 70
     1
102
RTVSPropertyOp32
 70
     1
  0
XRECORD
  5
15B
102
{ACAD_REACTORS
330
15A
102
}
330
15A
100
AcDbXrecord
280
     1
102
RTVSPropertyOp0
 70
     1
102
RTVSPropertyOp1
 70
     1
102
RTVSPropertyOp2
 70
     1
102
RTVSPropertyOp3
 70
     1
102
RTVSPropertyOp4
 70
     1
102
RTVSPropertyOp5
 70
     1
102
RTVSPropertyOp6
 70
     1
102
RTVSPropertyOp7
 70
     1
102
RTVSPropertyOp8
 70
     1
102
RTVSPropertyOp9
 70
     1
102
RTVSPropertyOp10
 70
     1
102
RTVSPropertyOp11
 70
     1
102
RTVSPropertyOp12
 70
     1
102
RTVSPropertyOp13
 70
     1
102
RTVSPropertyOp14
 70
     1
102
RTVSPropertyOp15
 70
     1
102
RTVSPropertyOp16
 70
     1
102
RTVSPropertyOp17
 70
     1
102
RTVSPropertyOp18
 70
     1
102
RTVSPropertyOp19
 70
     1
102
RTVSPropertyOp20
 70
     1
102
RTVSPropertyOp21
 70
     1
102
RTVSPropertyOp22
 70
     1
102
RTVSPropertyOp23
 70
     1
102
RTVSPropertyOp24
 70
     1
102
RTVSPropertyOp25
 70
     1
102
RTVSPropertyOp26
 70
     1
102
RTVSPropertyOp27
 70
     1
102
RTVSPropertyOp28
 70
     1
102
RTVSPropertyOp29
 70
     1
102
RTVSPropertyOp30
 70
     1
102
RTVSPropertyOp31
 70
     1
102
RTVSPropertyOp32
 70
     1
  0
XRECORD
  5
15D
102
{ACAD_REACTORS
330
15C
102
}
330
15C
100
AcDbXrecord
280
     1
102
RTVSPropertyOp0
 70
     1
102
RTVSPropertyOp1
 70
     1
102
RTVSPropertyOp2
 70
     1
102
RTVSPropertyOp3
 70
     1
102
RTVSPropertyOp4
 70
     1
102
RTVSPropertyOp5
 70
     1
102
RTVSPropertyOp6
 70
     1
102
RTVSPropertyOp7
 70
     1
102
RTVSPropertyOp8
 70
     1
102
RTVSPropertyOp9
 70
     1
102
RTVSPropertyOp10
 70
     1
102
RTVSPropertyOp11
 70
     1
102
RTVSPropertyOp12
 70
     1
102
RTVSPropertyOp13
 70
     1
102
RTVSPropertyOp14
 70
     1
102
RTVSPropertyOp15
 70
     1
102
RTVSPropertyOp16
 70
     1
102
RTVSPropertyOp17
 70
     1
102
RTVSPropertyOp18
 70
     1
102
RTVSPropertyOp19
 70
     1
102
RTVSPropertyOp20
 70
     1
102
RTVSPropertyOp21
 70
     1
102
RTVSPropertyOp22
 70
     1
102
RTVSPropertyOp23
 70
     1
102
RTVSPropertyOp24
 70
     1
102
RTVSPropertyOp25
 70
     1
102
RTVSPropertyOp26
 70
     1
102
RTVSPropertyOp27
 70
     1
102
RTVSPropertyOp28
 70
     1
102
RTVSPropertyOp29
 70
     1
102
RTVSPropertyOp30
 70
     1
102
RTVSPropertyOp31
 70
     1
102
RTVSPropertyOp32
 70
     1
  0
XRECORD
  5
165
102
{ACAD_REACTORS
330
164
102
}
330
164
100
AcDbXrecord
280
     1
102
RTVSPropertyOp0
 70
     1
102
RTVSPropertyOp1
 70
     1
102
RTVSPropertyOp2
 70
     1
102
RTVSPropertyOp3
 70
     1
102
RTVSPropertyOp4
 70
     1
102
RTVSPropertyOp5
 70
     1
102
RTVSPropertyOp6
 70
     1
102
RTVSPropertyOp7
 70
     1
102
RTVSPropertyOp8
 70
     1
102
RTVSPropertyOp9
 70
     1
102
RTVSPropertyOp10
 70
     1
102
RTVSPropertyOp11
 70
     1
102
RTVSPropertyOp12
 70
     1
102
RTVSPropertyOp13
 70
     1
102
RTVSPropertyOp14
 70
     1
102
RTVSPropertyOp15
 70
     1
102
RTVSPropertyOp16
 70
     1
102
RTVSPropertyOp17
 70
     1
102
RTVSPropertyOp18
 70
     1
102
RTVSPropertyOp19
 70
     1
102
RTVSPropertyOp20
 70
     1
102
RTVSPropertyOp21
 70
     1
102
RTVSPropertyOp22
 70
     1
102
RTVSPropertyOp23
 70
     1
102
RTVSPropertyOp24
 70
     1
102
RTVSPropertyOp25
 70
     1
102
RTVSPropertyOp26
 70
     1
102
RTVSPropertyOp27
 70
     1
102
RTVSPropertyOp28
 70
     1
102
RTVSPropertyOp29
 70
     1
102
RTVSPropertyOp30
 70
     1
102
RTVSPropertyOp31
 70
     1
102
RTVSPropertyOp32
 70
     1
  0
XRECORD
  5
181
102
{ACAD_REACTORS
330
180
102
}
330
180
100
AcDbXrecord
280
     1
102
RTVSPropertyOp0
 70
     0
102
RTVSPropertyOp1
 70
     0
102
RTVSPropertyOp2
 70
     0
102
RTVSPropertyOp3
 70
     0
102
RTVSPropertyOp4
 70
     0
102
RTVSPropertyOp5
 70
     0
102
RTVSPropertyOp6
 70
     0
102
RTVSPropertyOp7
 70
     0
102
RTVSPropertyOp8
 70
     0
102
RTVSPropertyOp9
 70
     0
102
RTVSPropertyOp10
 70
     0
102
RTVSPropertyOp11
 70
     0
102
RTVSPropertyOp12
 70
     0
102
RTVSPropertyOp13
 70
     0
102
RTVSPropertyOp14
 70
     2
102
RTVSPropertyOp15
 70
     0
102
RTVSPropertyOp16
 70
     0
102
RTVSPropertyOp17
 70
     0
102
RTVSPropertyOp18
 70
     0
102
RTVSPropertyOp19
 70
     0
102
RTVSPropertyOp20
 70
     0
102
RTVSPropertyOp21
 70
     0
102
RTVSPropertyOp22
 70
     0
102
RTVSPropertyOp23
 70
     0
102
RTVSPropertyOp24
 70
     0
102
RTVSPropertyOp25
 70
     0
102
RTVSPropertyOp26
 70
     0
102
RTVSPropertyOp27
 70
     0
102
RTVSPropertyOp28
 70
     0
102
RTVSPropertyOp29
 70
     0
102
RTVSPropertyOp30
 70
     0
102
RTVSPropertyOp31
 70
     0
102
RTVSPropertyOp32
 70
     0
  0
XRECORD
  5
171
102
{ACAD_REACTORS
330
170
102
}
330
170
100
AcDbXrecord
280
     1
102
RTVSPropertyOp0
 70
     1
102
RTVSPropertyOp1
 70
     1
102
RTVSPropertyOp2
 70
     1
102
RTVSPropertyOp3
 70
     1
102
RTVSPropertyOp4
 70
     1
102
RTVSPropertyOp5
 70
     1
102
RTVSPropertyOp6
 70
     1
102
RTVSPropertyOp7
 70
     1
102
RTVSPropertyOp8
 70
     1
102
RTVSPropertyOp9
 70
     1
102
RTVSPropertyOp10
 70
     1
102
RTVSPropertyOp11
 70
     1
102
RTVSPropertyOp12
 70
     1
102
RTVSPropertyOp13
 70
     1
102
RTVSPropertyOp14
 70
     1
102
RTVSPropertyOp15
 70
     1
102
RTVSPropertyOp16
 70
     1
102
RTVSPropertyOp17
 70
     1
102
RTVSPropertyOp18
 70
     1
102
RTVSPropertyOp19
 70
     1
102
RTVSPropertyOp20
 70
     1
102
RTVSPropertyOp21
 70
     1
102
RTVSPropertyOp22
 70
     1
102
RTVSPropertyOp23
 70
     1
102
RTVSPropertyOp24
 70
     1
102
RTVSPropertyOp25
 70
     1
102
RTVSPropertyOp26
 70
     1
102
RTVSPropertyOp27
 70
     1
102
RTVSPropertyOp28
 70
     1
102
RTVSPropertyOp29
 70
     1
102
RTVSPropertyOp30
 70
     1
102
RTVSPropertyOp31
 70
     1
102
RTVSPropertyOp32
 70
     1
  0
XRECORD
  5
183
102
{ACAD_REACTORS
330
182
102
}
330
182
100
AcDbXrecord
280
     1
102
RTVSPropertyOp0
 70
     0
102
RTVSPropertyOp1
 70
     0
102
RTVSPropertyOp2
 70
     0
102
RTVSPropertyOp3
 70
     0
102
RTVSPropertyOp4
 70
     0
102
RTVSPropertyOp5
 70
     0
102
RTVSPropertyOp6
 70
     0
102
RTVSPropertyOp7
 70
     0
102
RTVSPropertyOp8
 70
     0
102
RTVSPropertyOp9
 70
     0
102
RTVSPropertyOp10
 70
     0
102
RTVSPropertyOp11
 70
     0
102
RTVSPropertyOp12
 70
     0
102
RTVSPropertyOp13
 70
     0
102
RTVSPropertyOp14
 70
     2
102
RTVSPropertyOp15
 70
     0
102
RTVSPropertyOp16
 70
     0
102
RTVSPropertyOp17
 70
     0
102
RTVSPropertyOp18
 70
     0
102
RTVSPropertyOp19
 70
     0
102
RTVSPropertyOp20
 70
     0
102
RTVSPropertyOp21
 70
     0
102
RTVSPropertyOp22
 70
     0
102
RTVSPropertyOp23
 70
     0
102
RTVSPropertyOp24
 70
     0
102
RTVSPropertyOp25
 70
     0
102
RTVSPropertyOp26
 70
     0
102
RTVSPropertyOp27
 70
     0
102
RTVSPropertyOp28
 70
     0
102
RTVSPropertyOp29
 70
     0
102
RTVSPropertyOp30
 70
     0
102
RTVSPropertyOp31
 70
     0
102
RTVSPropertyOp32
 70
     0
  0
XRECORD
  5
169
102
{ACAD_REACTORS
330
168
102
}
330
168
100
AcDbXrecord
280
     1
102
RTVSPropertyOp0
 70
     1
102
RTVSPropertyOp1
 70
     1
102
RTVSPropertyOp2
 70
     1
102
RTVSPropertyOp3
 70
     1
102
RTVSPropertyOp4
 70
     1
102
RTVSPropertyOp5
 70
     1
102
RTVSPropertyOp6
 70
     1
102
RTVSPropertyOp7
 70
     1
102
RTVSPropertyOp8
 70
     1
102
RTVSPropertyOp9
 70
     1
102
RTVSPropertyOp10
 70
     1
102
RTVSPropertyOp11
 70
     1
102
RTVSPropertyOp12
 70
     1
102
RTVSPropertyOp13
 70
     1
102
RTVSPropertyOp14
 70
     1
102
RTVSPropertyOp15
 70
     1
102
RTVSPropertyOp16
 70
     1
102
RTVSPropertyOp17
 70
     1
102
RTVSPropertyOp18
 70
     1
102
RTVSPropertyOp19
 70
     1
102
RTVSPropertyOp20
 70
     1
102
RTVSPropertyOp21
 70
     1
102
RTVSPropertyOp22
 70
     1
102
RTVSPropertyOp23
 70
     1
102
RTVSPropertyOp24
 70
     1
102
RTVSPropertyOp25
 70
     1
102
RTVSPropertyOp26
 70
     1
102
RTVSPropertyOp27
 70
     1
102
RTVSPropertyOp28
 70
     1
102
RTVSPropertyOp29
 70
     1
102
RTVSPropertyOp30
 70
     1
102
RTVSPropertyOp31
 70
     1
102
RTVSPropertyOp32
 70
     1
  0
XRECORD
  5
17F
102
{ACAD_REACTORS
330
17E
102
}
330
17E
100
AcDbXrecord
280
     1
102
RTVSPropertyOp0
 70
     1
102
RTVSPropertyOp1
 70
     1
102
RTVSPropertyOp2
 70
     1
102
RTVSPropertyOp3
 70
     1
102
RTVSPropertyOp4
 70
     1
102
RTVSPropertyOp5
 70
     1
102
RTVSPropertyOp6
 70
     1
102
RTVSPropertyOp7
 70
     1
102
RTVSPropertyOp8
 70
     1
102
RTVSPropertyOp9
 70
     1
102
RTVSPropertyOp10
 70
     1
102
RTVSPropertyOp11
 70
     1
102
RTVSPropertyOp12
 70
     1
102
RTVSPropertyOp13
 70
     1
102
RTVSPropertyOp14
 70
     1
102
RTVSPropertyOp15
 70
     1
102
RTVSPropertyOp16
 70
     1
102
RTVSPropertyOp17
 70
     1
102
RTVSPropertyOp18
 70
     1
102
RTVSPropertyOp19
 70
     1
102
RTVSPropertyOp20
 70
     1
102
RTVSPropertyOp21
 70
     1
102
RTVSPropertyOp22
 70
     1
102
RTVSPropertyOp23
 70
     1
102
RTVSPropertyOp24
 70
     1
102
RTVSPropertyOp25
 70
     1
102
RTVSPropertyOp26
 70
     1
102
RTVSPropertyOp27
 70
     1
102
RTVSPropertyOp28
 70
     1
102
RTVSPropertyOp29
 70
     1
102
RTVSPropertyOp30
 70
     1
102
RTVSPropertyOp31
 70
     1
102
RTVSPropertyOp32
 70
     1
  0
XRECORD
  5
17D
102
{ACAD_REACTORS
330
17C
102
}
330
17C
100
AcDbXrecord
280
     1
102
RTVSPropertyOp0
 70
     1
102
RTVSPropertyOp1
 70
     1
102
RTVSPropertyOp2
 70
     1
102
RTVSPropertyOp3
 70
     1
102
RTVSPropertyOp4
 70
     1
102
RTVSPropertyOp5
 70
     1
102
RTVSPropertyOp6
 70
     1
102
RTVSPropertyOp7
 70
     1
102
RTVSPropertyOp8
 70
     1
102
RTVSPropertyOp9
 70
     1
102
RTVSPropertyOp10
 70
     1
102
RTVSPropertyOp11
 70
     1
102
RTVSPropertyOp12
 70
     1
102
RTVSPropertyOp13
 70
     1
102
RTVSPropertyOp14
 70
     1
102
RTVSPropertyOp15
 70
     1
102
RTVSPropertyOp16
 70
     1
102
RTVSPropertyOp17
 70
     1
102
RTVSPropertyOp18
 70
     1
102
RTVSPropertyOp19
 70
     1
102
RTVSPropertyOp20
 70
     1
102
RTVSPropertyOp21
 70
     1
102
RTVSPropertyOp22
 70
     1
102
RTVSPropertyOp23
 70
     1
102
RTVSPropertyOp24
 70
     1
102
RTVSPropertyOp25
 70
     1
102
RTVSPropertyOp26
 70
     1
102
RTVSPropertyOp27
 70
     1
102
RTVSPropertyOp28
 70
     1
102
RTVSPropertyOp29
 70
     1
102
RTVSPropertyOp30
 70
     1
102
RTVSPropertyOp31
 70
     1
102
RTVSPropertyOp32
 70
     1
  0
XRECORD
  5
177
102
{ACAD_REACTORS
330
176
102
}
330
176
100
AcDbXrecord
280
     1
102
RTVSPropertyOp0
 70
     1
102
RTVSPropertyOp1
 70
     1
102
RTVSPropertyOp2
 70
     1
102
RTVSPropertyOp3
 70
     1
102
RTVSPropertyOp4
 70
     1
102
RTVSPropertyOp5
 70
     1
102
RTVSPropertyOp6
 70
     1
102
RTVSPropertyOp7
 70
     1
102
RTVSPropertyOp8
 70
     1
102
RTVSPropertyOp9
 70
     1
102
RTVSPropertyOp10
 70
     1
102
RTVSPropertyOp11
 70
     1
102
RTVSPropertyOp12
 70
     1
102
RTVSPropertyOp13
 70
     1
102
RTVSPropertyOp14
 70
     1
102
RTVSPropertyOp15
 70
     1
102
RTVSPropertyOp16
 70
     1
102
RTVSPropertyOp17
 70
     1
102
RTVSPropertyOp18
 70
     1
102
RTVSPropertyOp19
 70
     1
102
RTVSPropertyOp20
 70
     1
102
RTVSPropertyOp21
 70
     1
102
RTVSPropertyOp22
 70
     1
102
RTVSPropertyOp23
 70
     1
102
RTVSPropertyOp24
 70
     1
102
RTVSPropertyOp25
 70
     1
102
RTVSPropertyOp26
 70
     1
102
RTVSPropertyOp27
 70
     1
102
RTVSPropertyOp28
 70
     1
102
RTVSPropertyOp29
 70
     1
102
RTVSPropertyOp30
 70
     1
102
RTVSPropertyOp31
 70
     1
102
RTVSPropertyOp32
 70
     1
  0
XRECORD
  5
179
102
{ACAD_REACTORS
330
178
102
}
330
178
100
AcDbXrecord
280
     1
102
RTVSPropertyOp0
 70
     1
102
RTVSPropertyOp1
 70
     1
102
RTVSPropertyOp2
 70
     1
102
RTVSPropertyOp3
 70
     1
102
RTVSPropertyOp4
 70
     1
102
RTVSPropertyOp5
 70
     1
102
RTVSPropertyOp6
 70
     1
102
RTVSPropertyOp7
 70
     1
102
RTVSPropertyOp8
 70
     1
102
RTVSPropertyOp9
 70
     1
102
RTVSPropertyOp10
 70
     1
102
RTVSPropertyOp11
 70
     1
102
RTVSPropertyOp12
 70
     1
102
RTVSPropertyOp13
 70
     1
102
RTVSPropertyOp14
 70
     1
102
RTVSPropertyOp15
 70
     1
102
RTVSPropertyOp16
 70
     1
102
RTVSPropertyOp17
 70
     1
102
RTVSPropertyOp18
 70
     1
102
RTVSPropertyOp19
 70
     1
102
RTVSPropertyOp20
 70
     1
102
RTVSPropertyOp21
 70
     1
102
RTVSPropertyOp22
 70
     1
102
RTVSPropertyOp23
 70
     1
102
RTVSPropertyOp24
 70
     1
102
RTVSPropertyOp25
 70
     1
102
RTVSPropertyOp26
 70
     1
102
RTVSPropertyOp27
 70
     1
102
RTVSPropertyOp28
 70
     1
102
RTVSPropertyOp29
 70
     1
102
RTVSPropertyOp30
 70
     1
102
RTVSPropertyOp31
 70
     1
102
RTVSPropertyOp32
 70
     1
  0
XRECORD
  5
16F
102
{ACAD_REACTORS
330
16E
102
}
330
16E
100
AcDbXrecord
280
     1
102
RTVSPropertyOp0
 70
     1
102
RTVSPropertyOp1
 70
     1
102
RTVSPropertyOp2
 70
     1
102
RTVSPropertyOp3
 70
     1
102
RTVSPropertyOp4
 70
     1
102
RTVSPropertyOp5
 70
     1
102
RTVSPropertyOp6
 70
     1
102
RTVSPropertyOp7
 70
     1
102
RTVSPropertyOp8
 70
     1
102
RTVSPropertyOp9
 70
     1
102
RTVSPropertyOp10
 70
     1
102
RTVSPropertyOp11
 70
     1
102
RTVSPropertyOp12
 70
     1
102
RTVSPropertyOp13
 70
     1
102
RTVSPropertyOp14
 70
     1
102
RTVSPropertyOp15
 70
     1
102
RTVSPropertyOp16
 70
     1
102
RTVSPropertyOp17
 70
     1
102
RTVSPropertyOp18
 70
     1
102
RTVSPropertyOp19
 70
     1
102
RTVSPropertyOp20
 70
     1
102
RTVSPropertyOp21
 70
     1
102
RTVSPropertyOp22
 70
     1
102
RTVSPropertyOp23
 70
     1
102
RTVSPropertyOp24
 70
     1
102
RTVSPropertyOp25
 70
     1
102
RTVSPropertyOp26
 70
     1
102
RTVSPropertyOp27
 70
     1
102
RTVSPropertyOp28
 70
     1
102
RTVSPropertyOp29
 70
     1
102
RTVSPropertyOp30
 70
     1
102
RTVSPropertyOp31
 70
     1
102
RTVSPropertyOp32
 70
     1
  0
XRECORD
  5
163
102
{ACAD_REACTORS
330
162
102
}
330
162
100
AcDbXrecord
280
     1
102
RTVSPropertyOp0
 70
     1
102
RTVSPropertyOp1
 70
     1
102
RTVSPropertyOp2
 70
     1
102
RTVSPropertyOp3
 70
     1
102
RTVSPropertyOp4
 70
     1
102
RTVSPropertyOp5
 70
     1
102
RTVSPropertyOp6
 70
     1
102
RTVSPropertyOp7
 70
     1
102
RTVSPropertyOp8
 70
     1
102
RTVSPropertyOp9
 70
     1
102
RTVSPropertyOp10
 70
     1
102
RTVSPropertyOp11
 70
     1
102
RTVSPropertyOp12
 70
     1
102
RTVSPropertyOp13
 70
     1
102
RTVSPropertyOp14
 70
     1
102
RTVSPropertyOp15
 70
     1
102
RTVSPropertyOp16
 70
     1
102
RTVSPropertyOp17
 70
     1
102
RTVSPropertyOp18
 70
     1
102
RTVSPropertyOp19
 70
     1
102
RTVSPropertyOp20
 70
     1
102
RTVSPropertyOp21
 70
     1
102
RTVSPropertyOp22
 70
     1
102
RTVSPropertyOp23
 70
     1
102
RTVSPropertyOp24
 70
     1
102
RTVSPropertyOp25
 70
     1
102
RTVSPropertyOp26
 70
     1
102
RTVSPropertyOp27
 70
     1
102
RTVSPropertyOp28
 70
     1
102
RTVSPropertyOp29
 70
     1
102
RTVSPropertyOp30
 70
     1
102
RTVSPropertyOp31
 70
     1
102
RTVSPropertyOp32
 70
     1
  0
XRECORD
  5
17B
102
{ACAD_REACTORS
330
17A
102
}
330
17A
100
AcDbXrecord
280
     1
102
RTVSPropertyOp0
 70
     1
102
RTVSPropertyOp1
 70
     1
102
RTVSPropertyOp2
 70
     1
102
RTVSPropertyOp3
 70
     1
102
RTVSPropertyOp4
 70
     1
102
RTVSPropertyOp5
 70
     1
102
RTVSPropertyOp6
 70
     1
102
RTVSPropertyOp7
 70
     1
102
RTVSPropertyOp8
 70
     1
102
RTVSPropertyOp9
 70
     1
102
RTVSPropertyOp10
 70
     1
102
RTVSPropertyOp11
 70
     1
102
RTVSPropertyOp12
 70
     1
102
RTVSPropertyOp13
 70
     1
102
RTVSPropertyOp14
 70
     1
102
RTVSPropertyOp15
 70
     1
102
RTVSPropertyOp16
 70
     1
102
RTVSPropertyOp17
 70
     1
102
RTVSPropertyOp18
 70
     1
102
RTVSPropertyOp19
 70
     1
102
RTVSPropertyOp20
 70
     1
102
RTVSPropertyOp21
 70
     1
102
RTVSPropertyOp22
 70
     1
102
RTVSPropertyOp23
 70
     1
102
RTVSPropertyOp24
 70
     1
102
RTVSPropertyOp25
 70
     1
102
RTVSPropertyOp26
 70
     1
102
RTVSPropertyOp27
 70
     1
102
RTVSPropertyOp28
 70
     1
102
RTVSPropertyOp29
 70
     1
102
RTVSPropertyOp30
 70
     1
102
RTVSPropertyOp31
 70
     1
102
RTVSPropertyOp32
 70
     1
  0
ENDSEC
  0
EOF
